ISO-10303-21;
HEADER;
FILE_DESCRIPTION (( 'STEP AP203' ),
    '1' );
FILE_NAME ('bd60.STEP',
    '2022-07-07T12:25:28',
    ( '' ),
    ( '' ),
    'SwSTEP 2.0',
    'SolidWorks 2019',
    '' );
FILE_SCHEMA (( 'CONFIG_CONTROL_DESIGN' ));
ENDSEC;

DATA;
#1 = ORIENTED_EDGE ( 'NONE', *, *, #297, .T. ) ;
#2 = DIRECTION ( 'NONE',  ( 1.000000000000000000, 0.000000000000000000, 0.000000000000000000 ) ) ;
#3 = CARTESIAN_POINT ( 'NONE',  ( -5.699999999999999289, 6.980486755139912122E-16, 5.200000000000009948 ) ) ;
#4 = DIRECTION ( 'NONE',  ( 1.000000000000000000, 0.000000000000000000, -0.000000000000000000 ) ) ;
#5 = CARTESIAN_POINT ( 'NONE',  ( -8.000000000000000000, 0.000000000000000000, 5.000000000000000000 ) ) ;
#6 = AXIS2_PLACEMENT_3D ( 'NONE', #143, #30, #116 ) ;
#7 = EDGE_CURVE ( 'NONE', #49, #175, #107, .T. ) ;
#8 = PERSON_AND_ORGANIZATION ( #246, #89 ) ;
#9 = CIRCLE ( 'NONE', #245, 5.699999999999999289 ) ;
#10 = EDGE_CURVE ( 'NONE', #137, #293, #205, .T. ) ;
#11 = PERSON_AND_ORGANIZATION ( #246, #89 ) ;
#12 = DIRECTION ( 'NONE',  ( 0.000000000000000000, 0.000000000000000000, 1.000000000000000000 ) ) ;
#13 = AXIS2_PLACEMENT_3D ( 'NONE', #83, #41, #4 ) ;
#14 = DATE_AND_TIME ( #243, #153 ) ;
#15 = EDGE_CURVE ( 'NONE', #280, #79, #276, .T. ) ;
#16 = ORIENTED_EDGE ( 'NONE', *, *, #187, .F. ) ;
#17 = ORIENTED_EDGE ( 'NONE', *, *, #7, .T. ) ;
#18 = CARTESIAN_POINT ( 'NONE',  ( 0.000000000000000000, 0.000000000000000000, 5.200000000000009948 ) ) ;
#19 = ADVANCED_FACE ( 'NONE', ( #85 ), #264, .F. ) ;
#20 = DIRECTION ( 'NONE',  ( -0.000000000000000000, -0.000000000000000000, -1.000000000000000000 ) ) ;
#21 = CYLINDRICAL_SURFACE ( 'NONE', #134, 8.000000000000000000 ) ;
#22 = ORIENTED_EDGE ( 'NONE', *, *, #200, .T. ) ;
#23 = ORIENTED_EDGE ( 'NONE', *, *, #148, .F. ) ;
#24 = DESIGN_CONTEXT ( 'detailed design', #275, 'design' ) ;
#25 = ORIENTED_EDGE ( 'NONE', *, *, #10, .F. ) ;
#26 = LINE ( 'NONE', #46, #151 ) ;
#27 = FACE_OUTER_BOUND ( 'NONE', #274, .T. ) ;
#28 = LOCAL_TIME ( 14, 25, 28.00000000000000000, #57 ) ;
#29 = DIRECTION ( 'NONE',  ( 0.000000000000000000, 0.000000000000000000, -1.000000000000000000 ) ) ;
#30 = DIRECTION ( 'NONE',  ( 0.000000000000000000, 0.000000000000000000, 1.000000000000000000 ) ) ;
#31 = DIRECTION ( 'NONE',  ( 1.000000000000000000, 0.000000000000000000, 0.000000000000000000 ) ) ;
#32 = APPROVAL_STATUS ( 'not_yet_approved' ) ;
#33 = CIRCLE ( 'NONE', #77, 5.500000000000000000 ) ;
#34 = APPROVAL_PERSON_ORGANIZATION ( #171, #212, #146 ) ;
#35 = CC_DESIGN_PERSON_AND_ORGANIZATION_ASSIGNMENT ( #8, #98, ( #182 ) ) ;
#36 = DATE_AND_TIME ( #242, #28 ) ;
#37 = SECURITY_CLASSIFICATION_LEVEL ( 'unclassified' ) ;
#38 = CIRCLE ( 'NONE', #6, 8.000000000000000000 ) ;
#39 = PERSON_AND_ORGANIZATION ( #246, #89 ) ;
#40 = ORIENTED_EDGE ( 'NONE', *, *, #215, .F. ) ;
#41 = DIRECTION ( 'NONE',  ( 0.000000000000000000, 0.000000000000000000, 1.000000000000000000 ) ) ;
#42 = CC_DESIGN_APPROVAL ( #222, ( #136 ) ) ;
#43 = EDGE_LOOP ( 'NONE', ( #17, #152 ) ) ;
#44 = FACE_BOUND ( 'NONE', #173, .T. ) ;
#45 = DIRECTION ( 'NONE',  ( -0.000000000000000000, -0.000000000000000000, -1.000000000000000000 ) ) ;
#46 = CARTESIAN_POINT ( 'NONE',  ( 8.000000000000000000, 9.797174393178825657E-16, 5.000000000000000000 ) ) ;
#47 = FACE_OUTER_BOUND ( 'NONE', #111, .T. ) ;
#48 = FACE_OUTER_BOUND ( 'NONE', #298, .T. ) ;
#49 = VERTEX_POINT ( 'NONE', #131 ) ;
#50 = DIRECTION ( 'NONE',  ( 1.000000000000000000, 0.000000000000000000, 0.000000000000000000 ) ) ;
#51 = DIRECTION ( 'NONE',  ( -0.000000000000000000, -0.000000000000000000, -1.000000000000000000 ) ) ;
#52 = AXIS2_PLACEMENT_3D ( 'NONE', #18, #213, #72 ) ;
#53 = CARTESIAN_POINT ( 'NONE',  ( 0.000000000000000000, 0.000000000000000000, 165.0000000000000000 ) ) ;
#54 = COORDINATED_UNIVERSAL_TIME_OFFSET ( 1, 0, .AHEAD. ) ;
#55 = PERSON_AND_ORGANIZATION_ROLE ( 'creator' ) ;
#56 = ADVANCED_FACE ( 'NONE', ( #47 ), #140, .T. ) ;
#57 = COORDINATED_UNIVERSAL_TIME_OFFSET ( 1, 0, .AHEAD. ) ;
#58 = DATE_AND_TIME ( #271, #284 ) ;
#59 = ORIENTED_EDGE ( 'NONE', *, *, #234, .F. ) ;
#60 = CIRCLE ( 'NONE', #70, 5.500000000000000000 ) ;
#61 = EDGE_CURVE ( 'NONE', #175, #49, #289, .T. ) ;
#62 = PRODUCT ( 'bd60', 'bd60', '', ( #269 ) ) ;
#63 = CIRCLE ( 'NONE', #189, 5.500000000000000000 ) ;
#64 = CARTESIAN_POINT ( 'NONE',  ( 5.500000000000000000, 6.735557395310442023E-16, 165.0000000000000000 ) ) ;
#65 = VERTEX_POINT ( 'NONE', #162 ) ;
#66 = FACE_OUTER_BOUND ( 'NONE', #255, .T. ) ;
#67 = ORIENTED_EDGE ( 'NONE', *, *, #297, .F. ) ;
#68 = DIRECTION ( 'NONE',  ( -1.000000000000000000, 0.000000000000000000, 0.000000000000000000 ) ) ;
#69 = DIRECTION ( 'NONE',  ( 0.000000000000000000, 0.000000000000000000, 1.000000000000000000 ) ) ;
#70 = AXIS2_PLACEMENT_3D ( 'NONE', #75, #179, #50 ) ;
#71 = VERTEX_POINT ( 'NONE', #252 ) ;
#72 = DIRECTION ( 'NONE',  ( 1.000000000000000000, 0.000000000000000000, 0.000000000000000000 ) ) ;
#73 = ADVANCED_FACE ( 'NONE', ( #27 ), #210, .T. ) ;
#74 = CARTESIAN_POINT ( 'NONE',  ( 0.000000000000000000, 0.000000000000000000, 0.000000000000000000 ) ) ;
#75 = CARTESIAN_POINT ( 'NONE',  ( 0.000000000000000000, 0.000000000000000000, 165.0000000000000000 ) ) ;
#76 = PERSON_AND_ORGANIZATION_ROLE ( 'creator' ) ;
#77 = AXIS2_PLACEMENT_3D ( 'NONE', #287, #177, #117 ) ;
#78 =( GEOMETRIC_REPRESENTATION_CONTEXT ( 3 ) GLOBAL_UNCERTAINTY_ASSIGNED_CONTEXT ( ( #204 ) ) GLOBAL_UNIT_ASSIGNED_CONTEXT ( ( #211, #169, #291 ) ) REPRESENTATION_CONTEXT ( 'NONE', 'WORKASPACE' ) );
#79 = VERTEX_POINT ( 'NONE', #282 ) ;
#80 = CC_DESIGN_PERSON_AND_ORGANIZATION_ASSIGNMENT ( #39, #76, ( #306 ) ) ;
#81 = ORIENTED_EDGE ( 'NONE', *, *, #15, .T. ) ;
#82 = DIRECTION ( 'NONE',  ( -0.000000000000000000, -0.000000000000000000, -1.000000000000000000 ) ) ;
#83 = CARTESIAN_POINT ( 'NONE',  ( 0.000000000000000000, 0.000000000000000000, 5.000000000000000000 ) ) ;
#84 = EDGE_LOOP ( 'NONE', ( #67, #81, #16, #59 ) ) ;
#85 = FACE_OUTER_BOUND ( 'NONE', #272, .T. ) ;
#86 = DIRECTION ( 'NONE',  ( 0.000000000000000000, 0.000000000000000000, 1.000000000000000000 ) ) ;
#87 = AXIS2_PLACEMENT_3D ( 'NONE', #233, #108, #110 ) ;
#88 = ORIENTED_EDGE ( 'NONE', *, *, #61, .F. ) ;
#89 = ORGANIZATION ( 'NEURÈENÝ', 'NEURÈENÝ', '' ) ;
#90 = DIRECTION ( 'NONE',  ( 1.000000000000000000, 0.000000000000000000, 0.000000000000000000 ) ) ;
#91 = CARTESIAN_POINT ( 'NONE',  ( 0.000000000000000000, 0.000000000000000000, 165.0000000000000000 ) ) ;
#92 = DIRECTION ( 'NONE',  ( -1.000000000000000000, 0.000000000000000000, 0.000000000000000000 ) ) ;
#93 = AXIS2_PLACEMENT_3D ( 'NONE', #3, #304, #115 ) ;
#94 = DIRECTION ( 'NONE',  ( -0.000000000000000000, -0.000000000000000000, -1.000000000000000000 ) ) ;
#95 = DATE_TIME_ROLE ( 'classification_date' ) ;
#96 = PERSON_AND_ORGANIZATION_ROLE ( 'design_owner' ) ;
#97 = PERSON_AND_ORGANIZATION ( #246, #89 ) ;
#98 = PERSON_AND_ORGANIZATION_ROLE ( 'design_supplier' ) ;
#99 = ADVANCED_FACE ( 'NONE', ( #161 ), #254, .F. ) ;
#100 = PERSON_AND_ORGANIZATION ( #246, #89 ) ;
#101 = ORIENTED_EDGE ( 'NONE', *, *, #219, .F. ) ;
#102 = CC_DESIGN_DATE_AND_TIME_ASSIGNMENT ( #36, #95, ( #136 ) ) ;
#103 = AXIS2_PLACEMENT_3D ( 'NONE', #301, #279, #29 ) ;
#104 = ORIENTED_EDGE ( 'NONE', *, *, #15, .F. ) ;
#105 = DIRECTION ( 'NONE',  ( 0.000000000000000000, 0.000000000000000000, 1.000000000000000000 ) ) ;
#106 = CARTESIAN_POINT ( 'NONE',  ( -8.000000000000000000, 0.000000000000000000, 0.000000000000000000 ) ) ;
#107 = CIRCLE ( 'NONE', #87, 8.000000000000000000 ) ;
#108 = DIRECTION ( 'NONE',  ( 0.000000000000000000, 0.000000000000000000, 1.000000000000000000 ) ) ;
#109 = AXIS2_PLACEMENT_3D ( 'NONE', #235, #133, #186 ) ;
#110 = DIRECTION ( 'NONE',  ( 1.000000000000000000, 0.000000000000000000, 0.000000000000000000 ) ) ;
#111 = EDGE_LOOP ( 'NONE', ( #25, #125, #135, #1 ) ) ;
#112 = EDGE_LOOP ( 'NONE', ( #101, #185, #221, #302 ) ) ;
#113 = ADVANCED_FACE ( 'NONE', ( #48 ), #21, .T. ) ;
#114 = CARTESIAN_POINT ( 'NONE',  ( -5.500000000000000000, 0.000000000000000000, 165.0000000000000000 ) ) ;
#115 = DIRECTION ( 'NONE',  ( -1.000000000000000000, 1.224646799147353454E-16, 0.000000000000000000 ) ) ;
#116 = DIRECTION ( 'NONE',  ( 1.000000000000000000, 0.000000000000000000, 0.000000000000000000 ) ) ;
#117 = DIRECTION ( 'NONE',  ( 1.000000000000000000, 0.000000000000000000, 0.000000000000000000 ) ) ;
#118 = APPLICATION_PROTOCOL_DEFINITION ( 'international standard', 'config_control_design', 1994, #275 ) ;
#119 = EDGE_CURVE ( 'NONE', #65, #195, #38, .T. ) ;
#120 = COORDINATED_UNIVERSAL_TIME_OFFSET ( 1, 0, .AHEAD. ) ;
#121 = COORDINATED_UNIVERSAL_TIME_OFFSET ( 1, 0, .AHEAD. ) ;
#122 = AXIS2_PLACEMENT_3D ( 'NONE', #230, #281, #68 ) ;
#123 = ORIENTED_EDGE ( 'NONE', *, *, #7, .F. ) ;
#124 = CALENDAR_DATE ( 2022, 7, 7 ) ;
#125 = ORIENTED_EDGE ( 'NONE', *, *, #174, .F. ) ;
#126 = ORIENTED_EDGE ( 'NONE', *, *, #174, .T. ) ;
#127 = AXIS2_PLACEMENT_3D ( 'NONE', #223, #105, #2 ) ;
#128 = CARTESIAN_POINT ( 'NONE',  ( 5.699999999999999289, 0.000000000000000000, 5.000000000000005329 ) ) ;
#129 = ORIENTED_EDGE ( 'NONE', *, *, #170, .T. ) ;
#130 = PLANE ( 'NONE',  #13 ) ;
#131 = CARTESIAN_POINT ( 'NONE',  ( -8.000000000000000000, 0.000000000000000000, 5.000000000000000000 ) ) ;
#132 = ADVANCED_FACE ( 'NONE', ( #277 ), #201, .T. ) ;
#133 = DIRECTION ( 'NONE',  ( -0.000000000000000000, -0.000000000000000000, -1.000000000000000000 ) ) ;
#134 = AXIS2_PLACEMENT_3D ( 'NONE', #258, #51, #237 ) ;
#135 = ORIENTED_EDGE ( 'NONE', *, *, #138, .T. ) ;
#136 = SECURITY_CLASSIFICATION ( '', '', #37 ) ;
#137 = VERTEX_POINT ( 'NONE', #64 ) ;
#138 = EDGE_CURVE ( 'NONE', #71, #280, #299, .T. ) ;
#139 = ORIENTED_EDGE ( 'NONE', *, *, #215, .T. ) ;
#140 = CYLINDRICAL_SURFACE ( 'NONE', #122, 5.500000000000000000 ) ;
#141 = PRODUCT_DEFINITION_SHAPE ( 'NONE', 'NONE',  #306 ) ;
#142 = CARTESIAN_POINT ( 'NONE',  ( 0.000000000000000000, 0.000000000000000000, 5.000000000000000000 ) ) ;
#143 = CARTESIAN_POINT ( 'NONE',  ( 0.000000000000000000, 0.000000000000000000, 0.000000000000000000 ) ) ;
#144 = CARTESIAN_POINT ( 'NONE',  ( 8.000000000000000000, 9.797174393178825657E-16, 5.000000000000000000 ) ) ;
#145 = PERSON_AND_ORGANIZATION ( #246, #89 ) ;
#146 = APPROVAL_ROLE ( '' ) ;
#147 = CC_DESIGN_APPROVAL ( #160, ( #182 ) ) ;
#148 = EDGE_CURVE ( 'NONE', #293, #280, #33, .T. ) ;
#149 = APPLICATION_CONTEXT ( 'configuration controlled 3d designs of mechanical parts and assemblies' ) ;
#150 = APPROVAL_DATE_TIME ( #58, #212 ) ;
#151 = VECTOR ( 'NONE', #188, 1000.000000000000000 ) ;
#152 = ORIENTED_EDGE ( 'NONE', *, *, #61, .T. ) ;
#153 = LOCAL_TIME ( 14, 25, 28.00000000000000000, #120 ) ;
#154 = FACE_OUTER_BOUND ( 'NONE', #43, .T. ) ;
#155 = ORIENTED_EDGE ( 'NONE', *, *, #187, .T. ) ;
#156 = ADVANCED_FACE ( 'NONE', ( #44, #154 ), #130, .T. ) ;
#157 = DIRECTION ( 'NONE',  ( 0.000000000000000000, 0.000000000000000000, 1.000000000000000000 ) ) ;
#158 = ORIENTED_EDGE ( 'NONE', *, *, #207, .F. ) ;
#159 = CARTESIAN_POINT ( 'NONE',  ( 0.000000000000000000, 0.000000000000000000, 5.000000000000000000 ) ) ;
#160 = APPROVAL ( #218, 'NEURÈENÝ' ) ;
#161 = FACE_OUTER_BOUND ( 'NONE', #249, .T. ) ;
#162 = CARTESIAN_POINT ( 'NONE',  ( 8.000000000000000000, 9.797174393178825657E-16, 0.000000000000000000 ) ) ;
#163 = CARTESIAN_POINT ( 'NONE',  ( 0.000000000000000000, 0.000000000000000000, 5.000000000000000000 ) ) ;
#164 = DIRECTION ( 'NONE',  ( 1.000000000000000000, 0.000000000000000000, -0.000000000000000000 ) ) ;
#165 = AXIS2_PLACEMENT_3D ( 'NONE', #91, #181, #288 ) ;
#166 = DIRECTION ( 'NONE',  ( 1.000000000000000000, 0.000000000000000000, 0.000000000000000000 ) ) ;
#167 = SHAPE_DEFINITION_REPRESENTATION ( #141, #262 ) ;
#168 = PERSON_AND_ORGANIZATION ( #246, #89 ) ;
#169 =( NAMED_UNIT ( * ) PLANE_ANGLE_UNIT ( ) SI_UNIT ( $, .RADIAN. ) );
#170 = EDGE_CURVE ( 'NONE', #79, #286, #9, .T. ) ;
#171 = PERSON_AND_ORGANIZATION ( #246, #89 ) ;
#172 = APPLICATION_PROTOCOL_DEFINITION ( 'international standard', 'config_control_design', 1994, #149 ) ;
#173 = EDGE_LOOP ( 'NONE', ( #155, #129 ) ) ;
#174 = EDGE_CURVE ( 'NONE', #71, #137, #63, .T. ) ;
#175 = VERTEX_POINT ( 'NONE', #144 ) ;
#176 = CC_DESIGN_PERSON_AND_ORGANIZATION_ASSIGNMENT ( #97, #55, ( #182 ) ) ;
#177 = DIRECTION ( 'NONE',  ( 0.000000000000000000, 0.000000000000000000, 1.000000000000000000 ) ) ;
#178 = TOROIDAL_SURFACE ( 'NONE', #52, 5.699999999999999289, 0.2000000000000000111 ) ;
#179 = DIRECTION ( 'NONE',  ( 0.000000000000000000, 0.000000000000000000, 1.000000000000000000 ) ) ;
#180 = ORIENTED_EDGE ( 'NONE', *, *, #207, .T. ) ;
#181 = DIRECTION ( 'NONE',  ( 0.000000000000000000, 0.000000000000000000, 1.000000000000000000 ) ) ;
#182 = PRODUCT_DEFINITION_FORMATION_WITH_SPECIFIED_SOURCE ( 'LIBOVOLNÝ', '', #62, .NOT_KNOWN. ) ;
#183 = DIRECTION ( 'NONE',  ( 0.000000000000000000, 0.000000000000000000, 1.000000000000000000 ) ) ;
#184 = CARTESIAN_POINT ( 'NONE',  ( 0.000000000000000000, 0.000000000000000000, 165.0000000000000000 ) ) ;
#185 = ORIENTED_EDGE ( 'NONE', *, *, #10, .T. ) ;
#186 = DIRECTION ( 'NONE',  ( -1.000000000000000000, 0.000000000000000000, 0.000000000000000000 ) ) ;
#187 = EDGE_CURVE ( 'NONE', #286, #79, #268, .T. ) ;
#188 = DIRECTION ( 'NONE',  ( -0.000000000000000000, -0.000000000000000000, -1.000000000000000000 ) ) ;
#189 = AXIS2_PLACEMENT_3D ( 'NONE', #53, #157, #90 ) ;
#190 = LOCAL_TIME ( 14, 25, 28.00000000000000000, #214 ) ;
#191 = ADVANCED_FACE ( 'NONE', ( #225 ), #178, .F. ) ;
#192 = APPROVAL_STATUS ( 'not_yet_approved' ) ;
#193 = DIRECTION ( 'NONE',  ( 1.000000000000000000, 0.000000000000000000, 0.000000000000000000 ) ) ;
#194 = CALENDAR_DATE ( 2022, 7, 7 ) ;
#195 = VERTEX_POINT ( 'NONE', #106 ) ;
#196 = DATE_AND_TIME ( #194, #296 ) ;
#197 = CIRCLE ( 'NONE', #217, 8.000000000000000000 ) ;
#198 = APPROVAL_PERSON_ORGANIZATION ( #100, #222, #216 ) ;
#199 = ORIENTED_EDGE ( 'NONE', *, *, #119, .T. ) ;
#200 = EDGE_CURVE ( 'NONE', #49, #195, #209, .T. ) ;
#201 = CYLINDRICAL_SURFACE ( 'NONE', #260, 5.500000000000000000 ) ;
#202 = CLOSED_SHELL ( 'NONE', ( #191, #132, #240, #113, #156, #99, #56, #73, #19 ) ) ;
#203 = CARTESIAN_POINT ( 'NONE',  ( 0.000000000000000000, 0.000000000000000000, 0.000000000000000000 ) ) ;
#204 = UNCERTAINTY_MEASURE_WITH_UNIT (LENGTH_MEASURE( 1.000000000000000082E-05 ), #211, 'distance_accuracy_value', 'NONE');
#205 = LINE ( 'NONE', #305, #295 ) ;
#206 = DIRECTION ( 'NONE',  ( 1.000000000000000000, 0.000000000000000000, 0.000000000000000000 ) ) ;
#207 = EDGE_CURVE ( 'NONE', #175, #65, #26, .T. ) ;
#208 = DIRECTION ( 'NONE',  ( 1.000000000000000000, 0.000000000000000000, 0.000000000000000000 ) ) ;
#209 = LINE ( 'NONE', #5, #267 ) ;
#210 = PLANE ( 'NONE',  #165 ) ;
#211 =( LENGTH_UNIT ( ) NAMED_UNIT ( * ) SI_UNIT ( .MILLI., .METRE. ) );
#212 = APPROVAL ( #192, 'NEURÈENÝ' ) ;
#213 = DIRECTION ( 'NONE',  ( 0.000000000000000000, 0.000000000000000000, 1.000000000000000000 ) ) ;
#214 = COORDINATED_UNIVERSAL_TIME_OFFSET ( 1, 0, .AHEAD. ) ;
#215 = EDGE_CURVE ( 'NONE', #195, #65, #197, .T. ) ;
#216 = APPROVAL_ROLE ( '' ) ;
#217 = AXIS2_PLACEMENT_3D ( 'NONE', #203, #290, #256 ) ;
#218 = APPROVAL_STATUS ( 'not_yet_approved' ) ;
#219 = EDGE_CURVE ( 'NONE', #137, #71, #60, .T. ) ;
#220 = ORIENTED_EDGE ( 'NONE', *, *, #170, .F. ) ;
#221 = ORIENTED_EDGE ( 'NONE', *, *, #148, .T. ) ;
#222 = APPROVAL ( #32, 'NEURÈENÝ' ) ;
#223 = CARTESIAN_POINT ( 'NONE',  ( 0.000000000000000000, 0.000000000000000000, 5.200000000000009948 ) ) ;
#224 = ORIENTED_EDGE ( 'NONE', *, *, #119, .F. ) ;
#225 = FACE_OUTER_BOUND ( 'NONE', #84, .T. ) ;
#226 = CARTESIAN_POINT ( 'NONE',  ( 0.000000000000000000, 0.000000000000000000, 5.200000000000009948 ) ) ;
#227 = CARTESIAN_POINT ( 'NONE',  ( 5.500000000000000000, 6.735557395310442023E-16, 5.200000000000009948 ) ) ;
#228 = ORIENTED_EDGE ( 'NONE', *, *, #200, .F. ) ;
#229 = APPROVAL_PERSON_ORGANIZATION ( #11, #160, #238 ) ;
#230 = CARTESIAN_POINT ( 'NONE',  ( 0.000000000000000000, 0.000000000000000000, 165.0000000000000000 ) ) ;
#231 = MANIFOLD_SOLID_BREP ( 'Zaoblit1', #202 ) ;
#232 = ORIENTED_EDGE ( 'NONE', *, *, #234, .T. ) ;
#233 = CARTESIAN_POINT ( 'NONE',  ( 0.000000000000000000, 0.000000000000000000, 5.000000000000000000 ) ) ;
#234 = EDGE_CURVE ( 'NONE', #293, #286, #241, .T. ) ;
#235 = CARTESIAN_POINT ( 'NONE',  ( 0.000000000000000000, 0.000000000000000000, 5.000000000000000000 ) ) ;
#236 = AXIS2_PLACEMENT_3D ( 'NONE', #163, #248, #31 ) ;
#237 = DIRECTION ( 'NONE',  ( -1.000000000000000000, 0.000000000000000000, 0.000000000000000000 ) ) ;
#238 = APPROVAL_ROLE ( '' ) ;
#239 = DATE_TIME_ROLE ( 'creation_date' ) ;
#240 = ADVANCED_FACE ( 'NONE', ( #66 ), #250, .T. ) ;
#241 = CIRCLE ( 'NONE', #103, 0.1999999999999996503 ) ;
#242 = CALENDAR_DATE ( 2022, 7, 7 ) ;
#243 = CALENDAR_DATE ( 2022, 7, 7 ) ;
#244 = CC_DESIGN_PERSON_AND_ORGANIZATION_ASSIGNMENT ( #145, #266, ( #136 ) ) ;
#245 = AXIS2_PLACEMENT_3D ( 'NONE', #142, #259, #166 ) ;
#246 = PERSON ( 'NEURÈENÝ', 'NEURÈENÝ', 'NEURÈENÝ', ('NEURÈENÝ'), ('NEURÈENÝ'), ('NEURÈENÝ') ) ;
#247 = CARTESIAN_POINT ( 'NONE',  ( -5.500000000000000000, 0.000000000000000000, 5.200000000000009948 ) ) ;
#248 = DIRECTION ( 'NONE',  ( -0.000000000000000000, -0.000000000000000000, -1.000000000000000000 ) ) ;
#249 = EDGE_LOOP ( 'NONE', ( #40, #224 ) ) ;
#250 = CYLINDRICAL_SURFACE ( 'NONE', #109, 8.000000000000000000 ) ;
#251 = ORIENTED_EDGE ( 'NONE', *, *, #219, .T. ) ;
#252 = CARTESIAN_POINT ( 'NONE',  ( -5.500000000000000000, 0.000000000000000000, 165.0000000000000000 ) ) ;
#253 = AXIS2_PLACEMENT_3D ( 'NONE', #261, #12, #193 ) ;
#254 = PLANE ( 'NONE',  #273 ) ;
#255 = EDGE_LOOP ( 'NONE', ( #88, #180, #199, #228 ) ) ;
#256 = DIRECTION ( 'NONE',  ( 1.000000000000000000, 0.000000000000000000, 0.000000000000000000 ) ) ;
#257 = AXIS2_PLACEMENT_3D ( 'NONE', #159, #183, #206 ) ;
#258 = CARTESIAN_POINT ( 'NONE',  ( 0.000000000000000000, 0.000000000000000000, 5.000000000000000000 ) ) ;
#259 = DIRECTION ( 'NONE',  ( -0.000000000000000000, -0.000000000000000000, -1.000000000000000000 ) ) ;
#260 = AXIS2_PLACEMENT_3D ( 'NONE', #184, #20, #92 ) ;
#261 = CARTESIAN_POINT ( 'NONE',  ( 0.000000000000000000, 0.000000000000000000, 0.000000000000000000 ) ) ;
#262 = ADVANCED_BREP_SHAPE_REPRESENTATION ( 'bd60', ( #231, #253 ), #78 ) ;
#263 = DATE_AND_TIME ( #124, #190 ) ;
#264 = TOROIDAL_SURFACE ( 'NONE', #307, 5.699999999999999289, 0.2000000000000000111 ) ;
#265 = VECTOR ( 'NONE', #82, 1000.000000000000000 ) ;
#266 = PERSON_AND_ORGANIZATION_ROLE ( 'classification_officer' ) ;
#267 = VECTOR ( 'NONE', #94, 1000.000000000000000 ) ;
#268 = CIRCLE ( 'NONE', #236, 5.699999999999999289 ) ;
#269 = MECHANICAL_CONTEXT ( 'NONE', #149, 'mechanical' ) ;
#270 = CC_DESIGN_PERSON_AND_ORGANIZATION_ASSIGNMENT ( #168, #96, ( #62 ) ) ;
#271 = CALENDAR_DATE ( 2022, 7, 7 ) ;
#272 = EDGE_LOOP ( 'NONE', ( #104, #23, #232, #220 ) ) ;
#273 = AXIS2_PLACEMENT_3D ( 'NONE', #74, #69, #164 ) ;
#274 = EDGE_LOOP ( 'NONE', ( #126, #251 ) ) ;
#275 = APPLICATION_CONTEXT ( 'configuration controlled 3d designs of mechanical parts and assemblies' ) ;
#276 = CIRCLE ( 'NONE', #93, 0.1999999999999996503 ) ;
#277 = FACE_OUTER_BOUND ( 'NONE', #112, .T. ) ;
#278 = CC_DESIGN_SECURITY_CLASSIFICATION ( #136, ( #182 ) ) ;
#279 = DIRECTION ( 'NONE',  ( 0.000000000000000000, -1.000000000000000000, 0.000000000000000000 ) ) ;
#280 = VERTEX_POINT ( 'NONE', #247 ) ;
#281 = DIRECTION ( 'NONE',  ( -0.000000000000000000, -0.000000000000000000, -1.000000000000000000 ) ) ;
#282 = CARTESIAN_POINT ( 'NONE',  ( -5.699999999999999289, 6.980486755139912122E-16, 5.000000000000005329 ) ) ;
#283 = CIRCLE ( 'NONE', #127, 5.500000000000000000 ) ;
#284 = LOCAL_TIME ( 14, 25, 28.00000000000000000, #54 ) ;
#285 = PRODUCT_RELATED_PRODUCT_CATEGORY ( 'detail', '', ( #62 ) ) ;
#286 = VERTEX_POINT ( 'NONE', #128 ) ;
#287 = CARTESIAN_POINT ( 'NONE',  ( 0.000000000000000000, 0.000000000000000000, 5.200000000000009948 ) ) ;
#288 = DIRECTION ( 'NONE',  ( 1.000000000000000000, 0.000000000000000000, -0.000000000000000000 ) ) ;
#289 = CIRCLE ( 'NONE', #257, 8.000000000000000000 ) ;
#290 = DIRECTION ( 'NONE',  ( 0.000000000000000000, 0.000000000000000000, 1.000000000000000000 ) ) ;
#291 =( NAMED_UNIT ( * ) SI_UNIT ( $, .STERADIAN. ) SOLID_ANGLE_UNIT ( ) );
#292 = APPROVAL_DATE_TIME ( #14, #160 ) ;
#293 = VERTEX_POINT ( 'NONE', #227 ) ;
#294 = APPROVAL_DATE_TIME ( #196, #222 ) ;
#295 = VECTOR ( 'NONE', #45, 1000.000000000000000 ) ;
#296 = LOCAL_TIME ( 14, 25, 28.00000000000000000, #121 ) ;
#297 = EDGE_CURVE ( 'NONE', #280, #293, #283, .T. ) ;
#298 = EDGE_LOOP ( 'NONE', ( #158, #123, #22, #139 ) ) ;
#299 = LINE ( 'NONE', #114, #265 ) ;
#300 = CC_DESIGN_DATE_AND_TIME_ASSIGNMENT ( #263, #239, ( #306 ) ) ;
#301 = CARTESIAN_POINT ( 'NONE',  ( 5.699999999999999289, 0.000000000000000000, 5.200000000000009948 ) ) ;
#302 = ORIENTED_EDGE ( 'NONE', *, *, #138, .F. ) ;
#303 = CC_DESIGN_APPROVAL ( #212, ( #306 ) ) ;
#304 = DIRECTION ( 'NONE',  ( 1.224646799147353207E-16, 1.000000000000000000, -0.000000000000000000 ) ) ;
#305 = CARTESIAN_POINT ( 'NONE',  ( 5.500000000000000000, 6.735557395310442023E-16, 165.0000000000000000 ) ) ;
#306 = PRODUCT_DEFINITION ( 'NEZNÁMÝ', '', #182, #24 ) ;
#307 = AXIS2_PLACEMENT_3D ( 'NONE', #226, #86, #208 ) ;
ENDSEC;
END-ISO-10303-21;
