ISO-10303-21;
HEADER;
FILE_DESCRIPTION (( 'STEP AP203' ),
    '1' );
FILE_NAME ('60c1.STEP',
    '2022-07-07T12:54:20',
    ( '' ),
    ( '' ),
    'SwSTEP 2.0',
    'SolidWorks 2019',
    '' );
FILE_SCHEMA (( 'CONFIG_CONTROL_DESIGN' ));
ENDSEC;

DATA;
#1 = CARTESIAN_POINT ( 'NONE',  ( 0.000000000000000000, 0.000000000000000000, 128.0000000000000000 ) ) ;
#2 = COORDINATED_UNIVERSAL_TIME_OFFSET ( 1, 0, .AHEAD. ) ;
#3 = FACE_OUTER_BOUND ( 'NONE', #176, .T. ) ;
#4 = APPROVAL_STATUS ( 'not_yet_approved' ) ;
#5 = AXIS2_PLACEMENT_3D ( 'NONE', #1, #194, #121 ) ;
#6 = CALENDAR_DATE ( 2022, 7, 7 ) ;
#7 = VERTEX_POINT ( 'NONE', #64 ) ;
#8 = VERTEX_POINT ( 'NONE', #113 ) ;
#9 = CIRCLE ( 'NONE', #186, 1.600000000000000089 ) ;
#10 = ORIENTED_EDGE ( 'NONE', *, *, #195, .T. ) ;
#11 = EDGE_CURVE ( 'NONE', #196, #7, #201, .T. ) ;
#12 = DIRECTION ( 'NONE',  ( 1.000000000000000000, 0.000000000000000000, 0.000000000000000000 ) ) ;
#13 = AXIS2_PLACEMENT_3D ( 'NONE', #75, #266, #304 ) ;
#14 = LOCAL_TIME ( 14, 54, 20.00000000000000000, #280 ) ;
#15 = DIRECTION ( 'NONE',  ( -0.000000000000000000, -0.000000000000000000, -1.000000000000000000 ) ) ;
#16 = ORIENTED_EDGE ( 'NONE', *, *, #262, .F. ) ;
#17 = APPROVAL_DATE_TIME ( #71, #43 ) ;
#18 = CARTESIAN_POINT ( 'NONE',  ( -3.000000000000000444, 0.000000000000000000, 0.000000000000000000 ) ) ;
#19 = DIRECTION ( 'NONE',  ( 1.000000000000000000, 0.000000000000000000, 0.000000000000000000 ) ) ;
#20 = CARTESIAN_POINT ( 'NONE',  ( 1.600000000000000089, 1.959434878635765230E-16, 3.199999999999994404 ) ) ;
#21 = DIRECTION ( 'NONE',  ( 0.000000000000000000, 0.000000000000000000, 1.000000000000000000 ) ) ;
#22 = DIRECTION ( 'NONE',  ( -1.000000000000000000, 0.000000000000000000, 0.000000000000000000 ) ) ;
#23 = AXIS2_PLACEMENT_3D ( 'NONE', #52, #152, #269 ) ;
#24 = LOCAL_TIME ( 14, 54, 20.00000000000000000, #2 ) ;
#25 = CARTESIAN_POINT ( 'NONE',  ( 0.000000000000000000, 0.000000000000000000, 3.000000000000000000 ) ) ;
#26 = CARTESIAN_POINT ( 'NONE',  ( 1.800000000000000266, 0.000000000000000000, 3.199999999999994404 ) ) ;
#27 = MECHANICAL_CONTEXT ( 'NONE', #180, 'mechanical' ) ;
#28 = AXIS2_PLACEMENT_3D ( 'NONE', #72, #125, #190 ) ;
#29 = ORIENTED_EDGE ( 'NONE', *, *, #262, .T. ) ;
#30 = AXIS2_PLACEMENT_3D ( 'NONE', #295, #166, #294 ) ;
#31 = AXIS2_PLACEMENT_3D ( 'NONE', #281, #168, #307 ) ;
#32 = ORIENTED_EDGE ( 'NONE', *, *, #134, .T. ) ;
#33 = MANIFOLD_SOLID_BREP ( 'Zaoblit1', #63 ) ;
#34 = ADVANCED_FACE ( 'NONE', ( #206 ), #47, .F. ) ;
#35 = ORIENTED_EDGE ( 'NONE', *, *, #132, .T. ) ;
#36 = ORIENTED_EDGE ( 'NONE', *, *, #207, .T. ) ;
#37 = CIRCLE ( 'NONE', #50, 3.000000000000000444 ) ;
#38 = LOCAL_TIME ( 14, 54, 20.00000000000000000, #126 ) ;
#39 = EDGE_LOOP ( 'NONE', ( #272, #10, #302, #135 ) ) ;
#40 =( NAMED_UNIT ( * ) SI_UNIT ( $, .STERADIAN. ) SOLID_ANGLE_UNIT ( ) );
#41 = DIRECTION ( 'NONE',  ( -1.000000000000000000, 0.000000000000000000, 0.000000000000000000 ) ) ;
#42 = PERSON_AND_ORGANIZATION ( #87, #243 ) ;
#43 = APPROVAL ( #4, 'NEURÈENÝ' ) ;
#44 = DIRECTION ( 'NONE',  ( 1.000000000000000000, 0.000000000000000000, -0.000000000000000000 ) ) ;
#45 = APPROVAL_ROLE ( '' ) ;
#46 = CARTESIAN_POINT ( 'NONE',  ( -1.600000000000000089, 0.000000000000000000, 128.0000000000000000 ) ) ;
#47 = TOROIDAL_SURFACE ( 'NONE', #298, 1.800000000000000266, 0.2000000000000000111 ) ;
#48 = DIRECTION ( 'NONE',  ( 0.000000000000000000, 0.000000000000000000, 1.000000000000000000 ) ) ;
#49 = CIRCLE ( 'NONE', #226, 1.600000000000000089 ) ;
#50 = AXIS2_PLACEMENT_3D ( 'NONE', #169, #48, #219 ) ;
#51 = ADVANCED_FACE ( 'NONE', ( #299 ), #171, .F. ) ;
#52 = CARTESIAN_POINT ( 'NONE',  ( 0.000000000000000000, 0.000000000000000000, 3.000000000000000000 ) ) ;
#53 = APPROVAL_STATUS ( 'not_yet_approved' ) ;
#54 = PRODUCT_DEFINITION ( 'NEZNÁMÝ', '', #66, #237 ) ;
#55 = EDGE_LOOP ( 'NONE', ( #156, #56, #259, #59 ) ) ;
#56 = ORIENTED_EDGE ( 'NONE', *, *, #155, .F. ) ;
#57 = VECTOR ( 'NONE', #112, 1000.000000000000000 ) ;
#58 = ADVANCED_FACE ( 'NONE', ( #202 ), #277, .T. ) ;
#59 = ORIENTED_EDGE ( 'NONE', *, *, #111, .T. ) ;
#60 = EDGE_CURVE ( 'NONE', #138, #82, #248, .T. ) ;
#61 = DIRECTION ( 'NONE',  ( 0.000000000000000000, 0.000000000000000000, 1.000000000000000000 ) ) ;
#62 = CARTESIAN_POINT ( 'NONE',  ( 0.000000000000000000, 0.000000000000000000, 128.0000000000000000 ) ) ;
#63 = CLOSED_SHELL ( 'NONE', ( #34, #58, #234, #128, #142, #197, #68, #165, #51 ) ) ;
#64 = CARTESIAN_POINT ( 'NONE',  ( 1.800000000000000266, 0.000000000000000000, 2.999999999999997335 ) ) ;
#65 =( GEOMETRIC_REPRESENTATION_CONTEXT ( 3 ) GLOBAL_UNCERTAINTY_ASSIGNED_CONTEXT ( ( #79 ) ) GLOBAL_UNIT_ASSIGNED_CONTEXT ( ( #130, #256, #40 ) ) REPRESENTATION_CONTEXT ( 'NONE', 'WORKASPACE' ) );
#66 = PRODUCT_DEFINITION_FORMATION_WITH_SPECIFIED_SOURCE ( 'LIBOVOLNÝ', '', #225, .NOT_KNOWN. ) ;
#67 = DIRECTION ( 'NONE',  ( -0.000000000000000000, -0.000000000000000000, -1.000000000000000000 ) ) ;
#68 = ADVANCED_FACE ( 'NONE', ( #257 ), #158, .T. ) ;
#69 = CALENDAR_DATE ( 2022, 7, 7 ) ;
#70 = ORIENTED_EDGE ( 'NONE', *, *, #60, .T. ) ;
#71 = DATE_AND_TIME ( #278, #275 ) ;
#72 = CARTESIAN_POINT ( 'NONE',  ( 0.000000000000000000, 0.000000000000000000, 3.000000000000000000 ) ) ;
#73 = APPROVAL_PERSON_ORGANIZATION ( #218, #117, #115 ) ;
#74 = CYLINDRICAL_SURFACE ( 'NONE', #149, 3.000000000000000444 ) ;
#75 = CARTESIAN_POINT ( 'NONE',  ( 0.000000000000000000, 0.000000000000000000, 128.0000000000000000 ) ) ;
#76 = DIRECTION ( 'NONE',  ( 0.000000000000000000, 0.000000000000000000, 1.000000000000000000 ) ) ;
#77 = DIRECTION ( 'NONE',  ( -0.000000000000000000, -0.000000000000000000, -1.000000000000000000 ) ) ;
#78 = PERSON_AND_ORGANIZATION ( #87, #243 ) ;
#79 = UNCERTAINTY_MEASURE_WITH_UNIT (LENGTH_MEASURE( 1.000000000000000082E-05 ), #130, 'distance_accuracy_value', 'NONE');
#80 = VERTEX_POINT ( 'NONE', #89 ) ;
#81 = DATE_TIME_ROLE ( 'classification_date' ) ;
#82 = VERTEX_POINT ( 'NONE', #18 ) ;
#83 = LOCAL_TIME ( 14, 54, 20.00000000000000000, #119 ) ;
#84 = ORIENTED_EDGE ( 'NONE', *, *, #11, .T. ) ;
#85 = ORIENTED_EDGE ( 'NONE', *, *, #207, .F. ) ;
#86 = EDGE_CURVE ( 'NONE', #106, #82, #116, .T. ) ;
#87 = PERSON ( 'NEURÈENÝ', 'NEURÈENÝ', 'NEURÈENÝ', ('NEURÈENÝ'), ('NEURÈENÝ'), ('NEURÈENÝ') ) ;
#88 = CARTESIAN_POINT ( 'NONE',  ( 0.000000000000000000, 0.000000000000000000, 0.000000000000000000 ) ) ;
#89 = CARTESIAN_POINT ( 'NONE',  ( -1.600000000000000089, 0.000000000000000000, 3.199999999999994404 ) ) ;
#90 = DIRECTION ( 'NONE',  ( 1.000000000000000000, 0.000000000000000000, 0.000000000000000000 ) ) ;
#91 = EDGE_LOOP ( 'NONE', ( #198, #104 ) ) ;
#92 = AXIS2_PLACEMENT_3D ( 'NONE', #215, #76, #189 ) ;
#93 = DIRECTION ( 'NONE',  ( 0.000000000000000000, 0.000000000000000000, 1.000000000000000000 ) ) ;
#94 = ORIENTED_EDGE ( 'NONE', *, *, #11, .F. ) ;
#95 = CARTESIAN_POINT ( 'NONE',  ( -1.800000000000000266, 2.204364238465236069E-16, 2.999999999999997335 ) ) ;
#96 = DIRECTION ( 'NONE',  ( -0.000000000000000000, -0.000000000000000000, -1.000000000000000000 ) ) ;
#97 = VECTOR ( 'NONE', #96, 1000.000000000000000 ) ;
#98 = FACE_OUTER_BOUND ( 'NONE', #271, .T. ) ;
#99 = LINE ( 'NONE', #170, #97 ) ;
#100 = CARTESIAN_POINT ( 'NONE',  ( 0.000000000000000000, 0.000000000000000000, 3.000000000000000000 ) ) ;
#101 = DATE_TIME_ROLE ( 'creation_date' ) ;
#102 = DATE_AND_TIME ( #193, #14 ) ;
#103 = EDGE_LOOP ( 'NONE', ( #250, #157, #32, #94 ) ) ;
#104 = ORIENTED_EDGE ( 'NONE', *, *, #107, .T. ) ;
#105 = APPROVAL_PERSON_ORGANIZATION ( #220, #43, #233 ) ;
#106 = VERTEX_POINT ( 'NONE', #273 ) ;
#107 = EDGE_CURVE ( 'NONE', #279, #204, #9, .T. ) ;
#108 = ORIENTED_EDGE ( 'NONE', *, *, #86, .T. ) ;
#109 = AXIS2_PLACEMENT_3D ( 'NONE', #25, #145, #173 ) ;
#110 = CARTESIAN_POINT ( 'NONE',  ( 0.000000000000000000, 0.000000000000000000, 3.199999999999994404 ) ) ;
#111 = EDGE_CURVE ( 'NONE', #80, #200, #49, .T. ) ;
#112 = DIRECTION ( 'NONE',  ( -0.000000000000000000, -0.000000000000000000, -1.000000000000000000 ) ) ;
#113 = CARTESIAN_POINT ( 'NONE',  ( 3.000000000000000444, 3.673940397442060361E-16, 3.000000000000000000 ) ) ;
#114 = AXIS2_PLACEMENT_3D ( 'NONE', #229, #67, #251 ) ;
#115 = APPROVAL_ROLE ( '' ) ;
#116 = LINE ( 'NONE', #181, #57 ) ;
#117 = APPROVAL ( #53, 'NEURÈENÝ' ) ;
#118 = AXIS2_PLACEMENT_3D ( 'NONE', #236, #93, #19 ) ;
#119 = COORDINATED_UNIVERSAL_TIME_OFFSET ( 1, 0, .AHEAD. ) ;
#120 = CARTESIAN_POINT ( 'NONE',  ( 0.000000000000000000, 0.000000000000000000, 0.000000000000000000 ) ) ;
#121 = DIRECTION ( 'NONE',  ( 1.000000000000000000, 0.000000000000000000, 0.000000000000000000 ) ) ;
#122 = DIRECTION ( 'NONE',  ( 1.000000000000000000, 0.000000000000000000, 0.000000000000000000 ) ) ;
#123 = CIRCLE ( 'NONE', #293, 3.000000000000000444 ) ;
#124 = PRODUCT_DEFINITION_SHAPE ( 'NONE', 'NONE',  #54 ) ;
#125 = DIRECTION ( 'NONE',  ( -0.000000000000000000, -0.000000000000000000, -1.000000000000000000 ) ) ;
#126 = COORDINATED_UNIVERSAL_TIME_OFFSET ( 1, 0, .AHEAD. ) ;
#127 = DIRECTION ( 'NONE',  ( 0.000000000000000000, 0.000000000000000000, 1.000000000000000000 ) ) ;
#128 = ADVANCED_FACE ( 'NONE', ( #285 ), #245, .T. ) ;
#129 = APPLICATION_PROTOCOL_DEFINITION ( 'international standard', 'config_control_design', 1994, #180 ) ;
#130 =( LENGTH_UNIT ( ) NAMED_UNIT ( * ) SI_UNIT ( .MILLI., .METRE. ) );
#131 = AXIS2_PLACEMENT_3D ( 'NONE', #62, #15, #41 ) ;
#132 = EDGE_CURVE ( 'NONE', #106, #8, #208, .T. ) ;
#133 = PERSON_AND_ORGANIZATION_ROLE ( 'creator' ) ;
#134 = EDGE_CURVE ( 'NONE', #200, #7, #282, .T. ) ;
#135 = ORIENTED_EDGE ( 'NONE', *, *, #231, .F. ) ;
#136 = VECTOR ( 'NONE', #242, 1000.000000000000000 ) ;
#137 = ORIENTED_EDGE ( 'NONE', *, *, #296, .T. ) ;
#138 = VERTEX_POINT ( 'NONE', #283 ) ;
#139 = ORIENTED_EDGE ( 'NONE', *, *, #289, .T. ) ;
#140 = DATE_AND_TIME ( #69, #38 ) ;
#141 = FACE_OUTER_BOUND ( 'NONE', #91, .T. ) ;
#142 = ADVANCED_FACE ( 'NONE', ( #217, #98 ), #240, .T. ) ;
#143 = AXIS2_PLACEMENT_3D ( 'NONE', #26, #261, #263 ) ;
#144 = APPROVAL_DATE_TIME ( #286, #291 ) ;
#145 = DIRECTION ( 'NONE',  ( 0.000000000000000000, 0.000000000000000000, 1.000000000000000000 ) ) ;
#146 = DIRECTION ( 'NONE',  ( 0.000000000000000000, 0.000000000000000000, 1.000000000000000000 ) ) ;
#147 = AXIS2_PLACEMENT_3D ( 'NONE', #161, #255, #228 ) ;
#148 = CARTESIAN_POINT ( 'NONE',  ( -1.600000000000000089, 0.000000000000000000, 128.0000000000000000 ) ) ;
#149 = AXIS2_PLACEMENT_3D ( 'NONE', #100, #77, #22 ) ;
#150 = PLANE ( 'NONE',  #13 ) ;
#151 = APPLICATION_PROTOCOL_DEFINITION ( 'international standard', 'config_control_design', 1994, #213 ) ;
#152 = DIRECTION ( 'NONE',  ( -0.000000000000000000, -0.000000000000000000, -1.000000000000000000 ) ) ;
#153 = AXIS2_PLACEMENT_3D ( 'NONE', #191, #127, #44 ) ;
#154 = CC_DESIGN_SECURITY_CLASSIFICATION ( #199, ( #66 ) ) ;
#155 = EDGE_CURVE ( 'NONE', #204, #279, #216, .T. ) ;
#156 = ORIENTED_EDGE ( 'NONE', *, *, #195, .F. ) ;
#157 = ORIENTED_EDGE ( 'NONE', *, *, #268, .F. ) ;
#158 = CYLINDRICAL_SURFACE ( 'NONE', #131, 1.600000000000000089 ) ;
#159 = CARTESIAN_POINT ( 'NONE',  ( 0.000000000000000000, 0.000000000000000000, 128.0000000000000000 ) ) ;
#160 = CIRCLE ( 'NONE', #23, 1.800000000000000266 ) ;
#161 = CARTESIAN_POINT ( 'NONE',  ( 0.000000000000000000, 0.000000000000000000, 3.000000000000000000 ) ) ;
#162 = APPROVAL_PERSON_ORGANIZATION ( #188, #291, #45 ) ;
#163 = DIRECTION ( 'NONE',  ( 0.000000000000000000, 0.000000000000000000, 1.000000000000000000 ) ) ;
#164 = PERSON_AND_ORGANIZATION ( #87, #243 ) ;
#165 = ADVANCED_FACE ( 'NONE', ( #141 ), #150, .T. ) ;
#166 = DIRECTION ( 'NONE',  ( 0.000000000000000000, 0.000000000000000000, 1.000000000000000000 ) ) ;
#167 = PERSON_AND_ORGANIZATION ( #87, #243 ) ;
#168 = DIRECTION ( 'NONE',  ( 1.224646799147353207E-16, 1.000000000000000000, -0.000000000000000000 ) ) ;
#169 = CARTESIAN_POINT ( 'NONE',  ( 0.000000000000000000, 0.000000000000000000, 3.000000000000000000 ) ) ;
#170 = CARTESIAN_POINT ( 'NONE',  ( 1.600000000000000089, 1.959434878635765230E-16, 128.0000000000000000 ) ) ;
#171 = TOROIDAL_SURFACE ( 'NONE', #30, 1.800000000000000266, 0.2000000000000000111 ) ;
#172 = CARTESIAN_POINT ( 'NONE',  ( 1.600000000000000089, 1.959434878635765230E-16, 128.0000000000000000 ) ) ;
#173 = DIRECTION ( 'NONE',  ( 1.000000000000000000, 0.000000000000000000, 0.000000000000000000 ) ) ;
#174 = PERSON_AND_ORGANIZATION_ROLE ( 'classification_officer' ) ;
#175 = CC_DESIGN_PERSON_AND_ORGANIZATION_ASSIGNMENT ( #167, #290, ( #66 ) ) ;
#176 = EDGE_LOOP ( 'NONE', ( #85, #179, #70, #252 ) ) ;
#177 = AXIS2_PLACEMENT_3D ( 'NONE', #88, #163, #235 ) ;
#178 = ORIENTED_EDGE ( 'NONE', *, *, #134, .F. ) ;
#179 = ORIENTED_EDGE ( 'NONE', *, *, #247, .T. ) ;
#180 = APPLICATION_CONTEXT ( 'configuration controlled 3d designs of mechanical parts and assemblies' ) ;
#181 = CARTESIAN_POINT ( 'NONE',  ( -3.000000000000000444, 0.000000000000000000, 3.000000000000000000 ) ) ;
#182 = CC_DESIGN_PERSON_AND_ORGANIZATION_ASSIGNMENT ( #260, #174, ( #199 ) ) ;
#183 = ADVANCED_BREP_SHAPE_REPRESENTATION ( '60c1', ( #33, #118 ), #65 ) ;
#184 = CARTESIAN_POINT ( 'NONE',  ( 0.000000000000000000, 0.000000000000000000, 3.199999999999994404 ) ) ;
#185 = ORIENTED_EDGE ( 'NONE', *, *, #296, .F. ) ;
#186 = AXIS2_PLACEMENT_3D ( 'NONE', #159, #61, #12 ) ;
#187 = DIRECTION ( 'NONE',  ( 0.000000000000000000, 0.000000000000000000, 1.000000000000000000 ) ) ;
#188 = PERSON_AND_ORGANIZATION ( #87, #243 ) ;
#189 = DIRECTION ( 'NONE',  ( 1.000000000000000000, 0.000000000000000000, 0.000000000000000000 ) ) ;
#190 = DIRECTION ( 'NONE',  ( -1.000000000000000000, 0.000000000000000000, 0.000000000000000000 ) ) ;
#191 = CARTESIAN_POINT ( 'NONE',  ( 0.000000000000000000, 0.000000000000000000, 3.000000000000000000 ) ) ;
#192 = DIRECTION ( 'NONE',  ( -0.000000000000000000, -0.000000000000000000, -1.000000000000000000 ) ) ;
#193 = CALENDAR_DATE ( 2022, 7, 7 ) ;
#194 = DIRECTION ( 'NONE',  ( 0.000000000000000000, 0.000000000000000000, 1.000000000000000000 ) ) ;
#195 = EDGE_CURVE ( 'NONE', #279, #200, #99, .T. ) ;
#196 = VERTEX_POINT ( 'NONE', #95 ) ;
#197 = ADVANCED_FACE ( 'NONE', ( #284 ), #214, .F. ) ;
#198 = ORIENTED_EDGE ( 'NONE', *, *, #155, .T. ) ;
#199 = SECURITY_CLASSIFICATION ( '', '', #222 ) ;
#200 = VERTEX_POINT ( 'NONE', #20 ) ;
#201 = CIRCLE ( 'NONE', #147, 1.800000000000000266 ) ;
#202 = FACE_OUTER_BOUND ( 'NONE', #39, .T. ) ;
#203 = CC_DESIGN_APPROVAL ( #43, ( #54 ) ) ;
#204 = VERTEX_POINT ( 'NONE', #46 ) ;
#205 = EDGE_LOOP ( 'NONE', ( #224, #139, #185, #178 ) ) ;
#206 = FACE_OUTER_BOUND ( 'NONE', #205, .T. ) ;
#207 = EDGE_CURVE ( 'NONE', #8, #106, #37, .T. ) ;
#208 = CIRCLE ( 'NONE', #109, 3.000000000000000444 ) ;
#209 = CALENDAR_DATE ( 2022, 7, 7 ) ;
#210 = DIRECTION ( 'NONE',  ( 1.000000000000000000, 0.000000000000000000, 0.000000000000000000 ) ) ;
#211 = CC_DESIGN_PERSON_AND_ORGANIZATION_ASSIGNMENT ( #164, #267, ( #225 ) ) ;
#212 = APPROVAL_DATE_TIME ( #301, #117 ) ;
#213 = APPLICATION_CONTEXT ( 'configuration controlled 3d designs of mechanical parts and assemblies' ) ;
#214 = PLANE ( 'NONE',  #270 ) ;
#215 = CARTESIAN_POINT ( 'NONE',  ( 0.000000000000000000, 0.000000000000000000, 3.199999999999994404 ) ) ;
#216 = CIRCLE ( 'NONE', #5, 1.600000000000000089 ) ;
#217 = FACE_BOUND ( 'NONE', #232, .T. ) ;
#218 = PERSON_AND_ORGANIZATION ( #87, #243 ) ;
#219 = DIRECTION ( 'NONE',  ( 1.000000000000000000, 0.000000000000000000, 0.000000000000000000 ) ) ;
#220 = PERSON_AND_ORGANIZATION ( #87, #243 ) ;
#221 = CC_DESIGN_PERSON_AND_ORGANIZATION_ASSIGNMENT ( #42, #133, ( #54 ) ) ;
#222 = SECURITY_CLASSIFICATION_LEVEL ( 'unclassified' ) ;
#223 = PRODUCT_RELATED_PRODUCT_CATEGORY ( 'detail', '', ( #225 ) ) ;
#224 = ORIENTED_EDGE ( 'NONE', *, *, #111, .F. ) ;
#225 = PRODUCT ( '60c1', '60c1', '', ( #27 ) ) ;
#226 = AXIS2_PLACEMENT_3D ( 'NONE', #110, #297, #90 ) ;
#227 = CIRCLE ( 'NONE', #92, 1.600000000000000089 ) ;
#228 = DIRECTION ( 'NONE',  ( 1.000000000000000000, 0.000000000000000000, 0.000000000000000000 ) ) ;
#229 = CARTESIAN_POINT ( 'NONE',  ( 0.000000000000000000, 0.000000000000000000, 128.0000000000000000 ) ) ;
#230 = ORIENTED_EDGE ( 'NONE', *, *, #247, .F. ) ;
#231 = EDGE_CURVE ( 'NONE', #204, #80, #287, .T. ) ;
#232 = EDGE_LOOP ( 'NONE', ( #137, #84 ) ) ;
#233 = APPROVAL_ROLE ( '' ) ;
#234 = ADVANCED_FACE ( 'NONE', ( #3 ), #74, .T. ) ;
#235 = DIRECTION ( 'NONE',  ( 1.000000000000000000, 0.000000000000000000, 0.000000000000000000 ) ) ;
#236 = CARTESIAN_POINT ( 'NONE',  ( 0.000000000000000000, 0.000000000000000000, 0.000000000000000000 ) ) ;
#237 = DESIGN_CONTEXT ( 'detailed design', #213, 'design' ) ;
#238 = CARTESIAN_POINT ( 'NONE',  ( 0.000000000000000000, 0.000000000000000000, 0.000000000000000000 ) ) ;
#239 = PERSON_AND_ORGANIZATION_ROLE ( 'design_supplier' ) ;
#240 = PLANE ( 'NONE',  #153 ) ;
#241 = CC_DESIGN_PERSON_AND_ORGANIZATION_ASSIGNMENT ( #78, #239, ( #66 ) ) ;
#242 = DIRECTION ( 'NONE',  ( -0.000000000000000000, -0.000000000000000000, -1.000000000000000000 ) ) ;
#243 = ORGANIZATION ( 'NEURÈENÝ', 'NEURÈENÝ', '' ) ;
#244 = LINE ( 'NONE', #306, #253 ) ;
#245 = CYLINDRICAL_SURFACE ( 'NONE', #28, 3.000000000000000444 ) ;
#246 = ORIENTED_EDGE ( 'NONE', *, *, #60, .F. ) ;
#247 = EDGE_CURVE ( 'NONE', #8, #138, #244, .T. ) ;
#248 = CIRCLE ( 'NONE', #177, 3.000000000000000444 ) ;
#249 = ORIENTED_EDGE ( 'NONE', *, *, #132, .F. ) ;
#250 = ORIENTED_EDGE ( 'NONE', *, *, #289, .F. ) ;
#251 = DIRECTION ( 'NONE',  ( -1.000000000000000000, 0.000000000000000000, 0.000000000000000000 ) ) ;
#252 = ORIENTED_EDGE ( 'NONE', *, *, #86, .F. ) ;
#253 = VECTOR ( 'NONE', #192, 1000.000000000000000 ) ;
#254 = CC_DESIGN_APPROVAL ( #117, ( #199 ) ) ;
#255 = DIRECTION ( 'NONE',  ( -0.000000000000000000, -0.000000000000000000, -1.000000000000000000 ) ) ;
#256 =( NAMED_UNIT ( * ) PLANE_ANGLE_UNIT ( ) SI_UNIT ( $, .RADIAN. ) );
#257 = FACE_OUTER_BOUND ( 'NONE', #55, .T. ) ;
#258 = COORDINATED_UNIVERSAL_TIME_OFFSET ( 1, 0, .AHEAD. ) ;
#259 = ORIENTED_EDGE ( 'NONE', *, *, #231, .T. ) ;
#260 = PERSON_AND_ORGANIZATION ( #87, #243 ) ;
#261 = DIRECTION ( 'NONE',  ( 0.000000000000000000, -1.000000000000000000, 0.000000000000000000 ) ) ;
#262 = EDGE_CURVE ( 'NONE', #82, #138, #123, .T. ) ;
#263 = DIRECTION ( 'NONE',  ( 0.000000000000000000, 0.000000000000000000, -1.000000000000000000 ) ) ;
#264 = DIRECTION ( 'NONE',  ( 1.000000000000000000, 0.000000000000000000, -0.000000000000000000 ) ) ;
#265 = CIRCLE ( 'NONE', #31, 0.1999999999999998723 ) ;
#266 = DIRECTION ( 'NONE',  ( 0.000000000000000000, 0.000000000000000000, 1.000000000000000000 ) ) ;
#267 = PERSON_AND_ORGANIZATION_ROLE ( 'design_owner' ) ;
#268 = EDGE_CURVE ( 'NONE', #200, #80, #227, .T. ) ;
#269 = DIRECTION ( 'NONE',  ( 1.000000000000000000, 0.000000000000000000, 0.000000000000000000 ) ) ;
#270 = AXIS2_PLACEMENT_3D ( 'NONE', #238, #146, #264 ) ;
#271 = EDGE_LOOP ( 'NONE', ( #35, #36 ) ) ;
#272 = ORIENTED_EDGE ( 'NONE', *, *, #107, .F. ) ;
#273 = CARTESIAN_POINT ( 'NONE',  ( -3.000000000000000444, 0.000000000000000000, 3.000000000000000000 ) ) ;
#274 = EDGE_LOOP ( 'NONE', ( #230, #249, #108, #29 ) ) ;
#275 = LOCAL_TIME ( 14, 54, 20.00000000000000000, #258 ) ;
#276 = CC_DESIGN_APPROVAL ( #291, ( #66 ) ) ;
#277 = CYLINDRICAL_SURFACE ( 'NONE', #114, 1.600000000000000089 ) ;
#278 = CALENDAR_DATE ( 2022, 7, 7 ) ;
#279 = VERTEX_POINT ( 'NONE', #172 ) ;
#280 = COORDINATED_UNIVERSAL_TIME_OFFSET ( 1, 0, .AHEAD. ) ;
#281 = CARTESIAN_POINT ( 'NONE',  ( -1.800000000000000266, 2.204364238465236069E-16, 3.199999999999994404 ) ) ;
#282 = CIRCLE ( 'NONE', #143, 0.2000000000000000944 ) ;
#283 = CARTESIAN_POINT ( 'NONE',  ( 3.000000000000000444, 3.673940397442060361E-16, 0.000000000000000000 ) ) ;
#284 = FACE_OUTER_BOUND ( 'NONE', #292, .T. ) ;
#285 = FACE_OUTER_BOUND ( 'NONE', #274, .T. ) ;
#286 = DATE_AND_TIME ( #6, #24 ) ;
#287 = LINE ( 'NONE', #148, #136 ) ;
#288 = APPROVAL_STATUS ( 'not_yet_approved' ) ;
#289 = EDGE_CURVE ( 'NONE', #80, #196, #265, .T. ) ;
#290 = PERSON_AND_ORGANIZATION_ROLE ( 'creator' ) ;
#291 = APPROVAL ( #288, 'NEURÈENÝ' ) ;
#292 = EDGE_LOOP ( 'NONE', ( #16, #246 ) ) ;
#293 = AXIS2_PLACEMENT_3D ( 'NONE', #120, #21, #122 ) ;
#294 = DIRECTION ( 'NONE',  ( 1.000000000000000000, 0.000000000000000000, 0.000000000000000000 ) ) ;
#295 = CARTESIAN_POINT ( 'NONE',  ( 0.000000000000000000, 0.000000000000000000, 3.199999999999994404 ) ) ;
#296 = EDGE_CURVE ( 'NONE', #7, #196, #160, .T. ) ;
#297 = DIRECTION ( 'NONE',  ( 0.000000000000000000, 0.000000000000000000, 1.000000000000000000 ) ) ;
#298 = AXIS2_PLACEMENT_3D ( 'NONE', #184, #187, #210 ) ;
#299 = FACE_OUTER_BOUND ( 'NONE', #103, .T. ) ;
#300 = CC_DESIGN_DATE_AND_TIME_ASSIGNMENT ( #140, #81, ( #199 ) ) ;
#301 = DATE_AND_TIME ( #209, #83 ) ;
#302 = ORIENTED_EDGE ( 'NONE', *, *, #268, .T. ) ;
#303 = SHAPE_DEFINITION_REPRESENTATION ( #124, #183 ) ;
#304 = DIRECTION ( 'NONE',  ( 1.000000000000000000, 0.000000000000000000, -0.000000000000000000 ) ) ;
#305 = CC_DESIGN_DATE_AND_TIME_ASSIGNMENT ( #102, #101, ( #54 ) ) ;
#306 = CARTESIAN_POINT ( 'NONE',  ( 3.000000000000000444, 3.673940397442060361E-16, 3.000000000000000000 ) ) ;
#307 = DIRECTION ( 'NONE',  ( -1.000000000000000000, 1.224646799147354686E-16, 0.000000000000000000 ) ) ;
ENDSEC;
END-ISO-10303-21;
