ISO-10303-21;
HEADER;
FILE_DESCRIPTION (( 'STEP AP203' ),
    '1' );
FILE_NAME ('74b0.STEP',
    '2022-07-07T12:43:11',
    ( '' ),
    ( '' ),
    'SwSTEP 2.0',
    'SolidWorks 2019',
    '' );
FILE_SCHEMA (( 'CONFIG_CONTROL_DESIGN' ));
ENDSEC;

DATA;
#1 = COORDINATED_UNIVERSAL_TIME_OFFSET ( 1, 0, .AHEAD. ) ;
#2 = APPROVAL_STATUS ( 'not_yet_approved' ) ;
#3 = ADVANCED_FACE ( 'NONE', ( #159 ), #105, .T. ) ;
#4 = CALENDAR_DATE ( 2022, 7, 7 ) ;
#5 = DATE_AND_TIME ( #242, #252 ) ;
#6 = FACE_BOUND ( 'NONE', #27, .T. ) ;
#7 = CIRCLE ( 'NONE', #260, 2.949999999999999734 ) ;
#8 = EDGE_CURVE ( 'NONE', #62, #38, #76, .T. ) ;
#9 = CARTESIAN_POINT ( 'NONE',  ( 0.000000000000000000, 0.000000000000000000, 3.000000000000000000 ) ) ;
#10 = ORIENTED_EDGE ( 'NONE', *, *, #216, .T. ) ;
#11 = EDGE_LOOP ( 'NONE', ( #104, #179, #294, #129 ) ) ;
#12 = DIRECTION ( 'NONE',  ( 0.000000000000000000, 0.000000000000000000, 1.000000000000000000 ) ) ;
#13 = ORIENTED_EDGE ( 'NONE', *, *, #8, .F. ) ;
#14 = CARTESIAN_POINT ( 'NONE',  ( 5.000000000000000000, 6.123233995736766282E-16, 3.000000000000000000 ) ) ;
#15 = DIRECTION ( 'NONE',  ( 1.000000000000000000, 0.000000000000000000, 0.000000000000000000 ) ) ;
#16 = DIRECTION ( 'NONE',  ( 1.000000000000000000, 0.000000000000000000, 0.000000000000000000 ) ) ;
#17 = APPROVAL ( #150, 'NEURÈENÝ' ) ;
#18 = DIRECTION ( 'NONE',  ( -1.000000000000000000, 0.000000000000000000, 0.000000000000000000 ) ) ;
#19 =( NAMED_UNIT ( * ) PLANE_ANGLE_UNIT ( ) SI_UNIT ( $, .RADIAN. ) );
#20 = CARTESIAN_POINT ( 'NONE',  ( 0.000000000000000000, 0.000000000000000000, 3.000000000000000000 ) ) ;
#21 = CC_DESIGN_PERSON_AND_ORGANIZATION_ASSIGNMENT ( #215, #53, ( #178 ) ) ;
#22 = LOCAL_TIME ( 14, 43, 11.00000000000000000, #25 ) ;
#23 = AXIS2_PLACEMENT_3D ( 'NONE', #31, #34, #60 ) ;
#24 = PERSON_AND_ORGANIZATION_ROLE ( 'design_supplier' ) ;
#25 = COORDINATED_UNIVERSAL_TIME_OFFSET ( 1, 0, .AHEAD. ) ;
#26 = AXIS2_PLACEMENT_3D ( 'NONE', #208, #279, #112 ) ;
#27 = EDGE_LOOP ( 'NONE', ( #56, #128 ) ) ;
#28 = APPROVAL_DATE_TIME ( #73, #95 ) ;
#29 = PRODUCT ( '74b0', '74b0', '', ( #287 ) ) ;
#30 = ORIENTED_EDGE ( 'NONE', *, *, #86, .T. ) ;
#31 = CARTESIAN_POINT ( 'NONE',  ( 0.000000000000000000, 0.000000000000000000, 0.000000000000000000 ) ) ;
#32 = CC_DESIGN_PERSON_AND_ORGANIZATION_ASSIGNMENT ( #123, #120, ( #29 ) ) ;
#33 = VERTEX_POINT ( 'NONE', #297 ) ;
#34 = DIRECTION ( 'NONE',  ( 0.000000000000000000, 0.000000000000000000, 1.000000000000000000 ) ) ;
#35 = MANIFOLD_SOLID_BREP ( 'Zaoblit1', #46 ) ;
#36 = EDGE_CURVE ( 'NONE', #240, #244, #162, .T. ) ;
#37 = DIRECTION ( 'NONE',  ( -0.000000000000000000, -0.000000000000000000, -1.000000000000000000 ) ) ;
#38 = VERTEX_POINT ( 'NONE', #181 ) ;
#39 = DIRECTION ( 'NONE',  ( 1.000000000000000000, 0.000000000000000000, 0.000000000000000000 ) ) ;
#40 = CC_DESIGN_APPROVAL ( #95, ( #178 ) ) ;
#41 = CC_DESIGN_APPROVAL ( #17, ( #213 ) ) ;
#42 = DIRECTION ( 'NONE',  ( -0.000000000000000000, -0.000000000000000000, -1.000000000000000000 ) ) ;
#43 = DIRECTION ( 'NONE',  ( 0.000000000000000000, 0.000000000000000000, 1.000000000000000000 ) ) ;
#44 = EDGE_CURVE ( 'NONE', #61, #62, #236, .T. ) ;
#45 = DIRECTION ( 'NONE',  ( 1.000000000000000000, 0.000000000000000000, 0.000000000000000000 ) ) ;
#46 = CLOSED_SHELL ( 'NONE', ( #189, #219, #255, #3, #144, #248, #296, #197, #307 ) ) ;
#47 = CARTESIAN_POINT ( 'NONE',  ( 2.750000000000000000, 3.367778697655221012E-16, 403.0000000000000000 ) ) ;
#48 = UNCERTAINTY_MEASURE_WITH_UNIT (LENGTH_MEASURE( 1.000000000000000082E-05 ), #66, 'distance_accuracy_value', 'NONE');
#49 = APPROVAL_ROLE ( '' ) ;
#50 = AXIS2_PLACEMENT_3D ( 'NONE', #91, #90, #18 ) ;
#51 = PERSON_AND_ORGANIZATION ( #166, #174 ) ;
#52 = CALENDAR_DATE ( 2022, 7, 7 ) ;
#53 = PERSON_AND_ORGANIZATION_ROLE ( 'creator' ) ;
#54 = AXIS2_PLACEMENT_3D ( 'NONE', #138, #258, #16 ) ;
#55 = ORIENTED_EDGE ( 'NONE', *, *, #301, .T. ) ;
#56 = ORIENTED_EDGE ( 'NONE', *, *, #280, .T. ) ;
#57 = FACE_OUTER_BOUND ( 'NONE', #267, .T. ) ;
#58 = FACE_OUTER_BOUND ( 'NONE', #226, .T. ) ;
#59 = CC_DESIGN_PERSON_AND_ORGANIZATION_ASSIGNMENT ( #51, #24, ( #213 ) ) ;
#60 = DIRECTION ( 'NONE',  ( 1.000000000000000000, 0.000000000000000000, 0.000000000000000000 ) ) ;
#61 = VERTEX_POINT ( 'NONE', #273 ) ;
#62 = VERTEX_POINT ( 'NONE', #200 ) ;
#63 = DIRECTION ( 'NONE',  ( 0.000000000000000000, 0.000000000000000000, -1.000000000000000000 ) ) ;
#64 = AXIS2_PLACEMENT_3D ( 'NONE', #84, #12, #39 ) ;
#65 = AXIS2_PLACEMENT_3D ( 'NONE', #9, #100, #103 ) ;
#66 =( LENGTH_UNIT ( ) NAMED_UNIT ( * ) SI_UNIT ( .MILLI., .METRE. ) );
#67 = DIRECTION ( 'NONE',  ( 0.000000000000000000, 0.000000000000000000, 1.000000000000000000 ) ) ;
#68 = AXIS2_PLACEMENT_3D ( 'NONE', #233, #69, #93 ) ;
#69 = DIRECTION ( 'NONE',  ( -0.000000000000000000, -0.000000000000000000, -1.000000000000000000 ) ) ;
#70 = PERSON_AND_ORGANIZATION ( #166, #174 ) ;
#71 = COORDINATED_UNIVERSAL_TIME_OFFSET ( 1, 0, .AHEAD. ) ;
#72 = PERSON_AND_ORGANIZATION ( #166, #174 ) ;
#73 = DATE_AND_TIME ( #4, #188 ) ;
#74 = EDGE_CURVE ( 'NONE', #244, #240, #254, .T. ) ;
#75 = AXIS2_PLACEMENT_3D ( 'NONE', #173, #172, #285 ) ;
#76 = CIRCLE ( 'NONE', #293, 2.949999999999999734 ) ;
#77 = AXIS2_PLACEMENT_3D ( 'NONE', #295, #107, #78 ) ;
#78 = DIRECTION ( 'NONE',  ( 1.000000000000000000, 0.000000000000000000, 0.000000000000000000 ) ) ;
#79 = ORIENTED_EDGE ( 'NONE', *, *, #148, .F. ) ;
#80 = ORIENTED_EDGE ( 'NONE', *, *, #44, .F. ) ;
#81 = CARTESIAN_POINT ( 'NONE',  ( 0.000000000000000000, 0.000000000000000000, 0.000000000000000000 ) ) ;
#82 = AXIS2_PLACEMENT_3D ( 'NONE', #282, #67, #113 ) ;
#83 = ORIENTED_EDGE ( 'NONE', *, *, #148, .T. ) ;
#84 = CARTESIAN_POINT ( 'NONE',  ( 0.000000000000000000, 0.000000000000000000, 403.0000000000000000 ) ) ;
#85 = ORIENTED_EDGE ( 'NONE', *, *, #216, .F. ) ;
#86 = EDGE_CURVE ( 'NONE', #33, #244, #157, .T. ) ;
#87 = CYLINDRICAL_SURFACE ( 'NONE', #68, 2.750000000000000000 ) ;
#88 = AXIS2_PLACEMENT_3D ( 'NONE', #164, #256, #187 ) ;
#89 = CYLINDRICAL_SURFACE ( 'NONE', #50, 2.750000000000000000 ) ;
#90 = DIRECTION ( 'NONE',  ( -0.000000000000000000, -0.000000000000000000, -1.000000000000000000 ) ) ;
#91 = CARTESIAN_POINT ( 'NONE',  ( 0.000000000000000000, 0.000000000000000000, 403.0000000000000000 ) ) ;
#92 = AXIS2_PLACEMENT_3D ( 'NONE', #231, #230, #63 ) ;
#93 = DIRECTION ( 'NONE',  ( -1.000000000000000000, 0.000000000000000000, 0.000000000000000000 ) ) ;
#94 = CALENDAR_DATE ( 2022, 7, 7 ) ;
#95 = APPROVAL ( #2, 'NEURÈENÝ' ) ;
#96 = DATE_AND_TIME ( #52, #22 ) ;
#97 = VECTOR ( 'NONE', #225, 1000.000000000000000 ) ;
#98 = EDGE_LOOP ( 'NONE', ( #201, #83 ) ) ;
#99 = AXIS2_PLACEMENT_3D ( 'NONE', #302, #137, #303 ) ;
#100 = DIRECTION ( 'NONE',  ( 0.000000000000000000, 0.000000000000000000, 1.000000000000000000 ) ) ;
#101 = AXIS2_PLACEMENT_3D ( 'NONE', #261, #43, #116 ) ;
#102 = EDGE_LOOP ( 'NONE', ( #79, #30, #125, #275 ) ) ;
#103 = DIRECTION ( 'NONE',  ( 1.000000000000000000, 0.000000000000000000, -0.000000000000000000 ) ) ;
#104 = ORIENTED_EDGE ( 'NONE', *, *, #86, .F. ) ;
#105 = CYLINDRICAL_SURFACE ( 'NONE', #118, 5.000000000000000000 ) ;
#106 = ORIENTED_EDGE ( 'NONE', *, *, #243, .T. ) ;
#107 = DIRECTION ( 'NONE',  ( 0.000000000000000000, 0.000000000000000000, 1.000000000000000000 ) ) ;
#108 = APPROVAL_PERSON_ORGANIZATION ( #70, #95, #194 ) ;
#109 = CARTESIAN_POINT ( 'NONE',  ( -2.750000000000000000, 0.000000000000000000, 403.0000000000000000 ) ) ;
#110 = PRODUCT_RELATED_PRODUCT_CATEGORY ( 'detail', '', ( #29 ) ) ;
#111 = FACE_OUTER_BOUND ( 'NONE', #156, .T. ) ;
#112 = DIRECTION ( 'NONE',  ( 1.000000000000000000, 0.000000000000000000, 0.000000000000000000 ) ) ;
#113 = DIRECTION ( 'NONE',  ( 1.000000000000000000, 0.000000000000000000, 0.000000000000000000 ) ) ;
#114 = EDGE_CURVE ( 'NONE', #126, #61, #132, .T. ) ;
#115 = CYLINDRICAL_SURFACE ( 'NONE', #117, 5.000000000000000000 ) ;
#116 = DIRECTION ( 'NONE',  ( 1.000000000000000000, 0.000000000000000000, -0.000000000000000000 ) ) ;
#117 = AXIS2_PLACEMENT_3D ( 'NONE', #20, #42, #277 ) ;
#118 = AXIS2_PLACEMENT_3D ( 'NONE', #276, #247, #202 ) ;
#119 = VECTOR ( 'NONE', #182, 1000.000000000000000 ) ;
#120 = PERSON_AND_ORGANIZATION_ROLE ( 'design_owner' ) ;
#121 = PERSON_AND_ORGANIZATION_ROLE ( 'classification_officer' ) ;
#122 = SHAPE_DEFINITION_REPRESENTATION ( #257, #288 ) ;
#123 = PERSON_AND_ORGANIZATION ( #166, #174 ) ;
#124 = CC_DESIGN_SECURITY_CLASSIFICATION ( #214, ( #213 ) ) ;
#125 = ORIENTED_EDGE ( 'NONE', *, *, #74, .T. ) ;
#126 = VERTEX_POINT ( 'NONE', #127 ) ;
#127 = CARTESIAN_POINT ( 'NONE',  ( -2.750000000000000000, 0.000000000000000000, 403.0000000000000000 ) ) ;
#128 = ORIENTED_EDGE ( 'NONE', *, *, #8, .T. ) ;
#129 = ORIENTED_EDGE ( 'NONE', *, *, #36, .T. ) ;
#130 = ORIENTED_EDGE ( 'NONE', *, *, #238, .T. ) ;
#131 = EDGE_LOOP ( 'NONE', ( #250, #10, #152, #183 ) ) ;
#132 = LINE ( 'NONE', #109, #97 ) ;
#133 = ORIENTED_EDGE ( 'NONE', *, *, #44, .T. ) ;
#134 = ORIENTED_EDGE ( 'NONE', *, *, #135, .T. ) ;
#135 = EDGE_CURVE ( 'NONE', #223, #126, #196, .T. ) ;
#136 = CIRCLE ( 'NONE', #82, 5.000000000000000000 ) ;
#137 = DIRECTION ( 'NONE',  ( 0.000000000000000000, 0.000000000000000000, 1.000000000000000000 ) ) ;
#138 = CARTESIAN_POINT ( 'NONE',  ( 0.000000000000000000, 0.000000000000000000, 403.0000000000000000 ) ) ;
#139 = APPLICATION_CONTEXT ( 'configuration controlled 3d designs of mechanical parts and assemblies' ) ;
#140 = CARTESIAN_POINT ( 'NONE',  ( -5.000000000000000000, 0.000000000000000000, 0.000000000000000000 ) ) ;
#141 = CC_DESIGN_APPROVAL ( #286, ( #214 ) ) ;
#142 = FACE_OUTER_BOUND ( 'NONE', #195, .T. ) ;
#143 = PERSON_AND_ORGANIZATION_ROLE ( 'creator' ) ;
#144 = ADVANCED_FACE ( 'NONE', ( #6, #270 ), #207, .T. ) ;
#145 = CIRCLE ( 'NONE', #54, 2.750000000000000000 ) ;
#146 = PERSON_AND_ORGANIZATION ( #166, #174 ) ;
#147 = APPROVAL_STATUS ( 'not_yet_approved' ) ;
#148 = EDGE_CURVE ( 'NONE', #33, #246, #241, .T. ) ;
#149 = CALENDAR_DATE ( 2022, 7, 7 ) ;
#150 = APPROVAL_STATUS ( 'not_yet_approved' ) ;
#151 = AXIS2_PLACEMENT_3D ( 'NONE', #81, #154, #220 ) ;
#152 = ORIENTED_EDGE ( 'NONE', *, *, #265, .T. ) ;
#153 = ORIENTED_EDGE ( 'NONE', *, *, #243, .F. ) ;
#154 = DIRECTION ( 'NONE',  ( 0.000000000000000000, 0.000000000000000000, 1.000000000000000000 ) ) ;
#155 = EDGE_CURVE ( 'NONE', #246, #240, #180, .T. ) ;
#156 = EDGE_LOOP ( 'NONE', ( #85, #175, #274, #55 ) ) ;
#157 = LINE ( 'NONE', #14, #306 ) ;
#158 = ORIENTED_EDGE ( 'NONE', *, *, #301, .F. ) ;
#159 = FACE_OUTER_BOUND ( 'NONE', #11, .T. ) ;
#160 = DIRECTION ( 'NONE',  ( 0.000000000000000000, 0.000000000000000000, 1.000000000000000000 ) ) ;
#161 = LOCAL_TIME ( 14, 43, 11.00000000000000000, #1 ) ;
#162 = CIRCLE ( 'NONE', #151, 5.000000000000000000 ) ;
#163 = AXIS2_PLACEMENT_3D ( 'NONE', #251, #249, #298 ) ;
#164 = CARTESIAN_POINT ( 'NONE',  ( 0.000000000000000000, 0.000000000000000000, 3.199999999999980638 ) ) ;
#165 = CARTESIAN_POINT ( 'NONE',  ( 0.000000000000000000, 0.000000000000000000, 3.199999999999980638 ) ) ;
#166 = PERSON ( 'NEURÈENÝ', 'NEURÈENÝ', 'NEURÈENÝ', ('NEURÈENÝ'), ('NEURÈENÝ'), ('NEURÈENÝ') ) ;
#167 = CARTESIAN_POINT ( 'NONE',  ( -5.000000000000000000, 0.000000000000000000, 3.000000000000000000 ) ) ;
#168 = LINE ( 'NONE', #212, #278 ) ;
#169 = SECURITY_CLASSIFICATION_LEVEL ( 'unclassified' ) ;
#170 = CC_DESIGN_DATE_AND_TIME_ASSIGNMENT ( #263, #191, ( #214 ) ) ;
#171 = PERSON_AND_ORGANIZATION ( #166, #174 ) ;
#172 = DIRECTION ( 'NONE',  ( 0.000000000000000000, 0.000000000000000000, 1.000000000000000000 ) ) ;
#173 = CARTESIAN_POINT ( 'NONE',  ( 0.000000000000000000, 0.000000000000000000, 0.000000000000000000 ) ) ;
#174 = ORGANIZATION ( 'NEURÈENÝ', 'NEURÈENÝ', '' ) ;
#175 = ORIENTED_EDGE ( 'NONE', *, *, #238, .F. ) ;
#176 = CIRCLE ( 'NONE', #26, 2.750000000000000000 ) ;
#177 = DIRECTION ( 'NONE',  ( 1.000000000000000000, 0.000000000000000000, 0.000000000000000000 ) ) ;
#178 = PRODUCT_DEFINITION ( 'NEZNÁMÝ', '', #213, #209 ) ;
#179 = ORIENTED_EDGE ( 'NONE', *, *, #203, .F. ) ;
#180 = LINE ( 'NONE', #205, #119 ) ;
#181 = CARTESIAN_POINT ( 'NONE',  ( 2.949999999999999734, 0.000000000000000000, 2.999999999999990674 ) ) ;
#182 = DIRECTION ( 'NONE',  ( -0.000000000000000000, -0.000000000000000000, -1.000000000000000000 ) ) ;
#183 = ORIENTED_EDGE ( 'NONE', *, *, #114, .F. ) ;
#184 = CARTESIAN_POINT ( 'NONE',  ( 2.750000000000000000, 3.367778697655221012E-16, 3.199999999999980638 ) ) ;
#185 = CARTESIAN_POINT ( 'NONE',  ( 5.000000000000000000, 6.123233995736766282E-16, 0.000000000000000000 ) ) ;
#186 = FACE_OUTER_BOUND ( 'NONE', #102, .T. ) ;
#187 = DIRECTION ( 'NONE',  ( 1.000000000000000000, 0.000000000000000000, 0.000000000000000000 ) ) ;
#188 = LOCAL_TIME ( 14, 43, 11.00000000000000000, #291 ) ;
#189 = ADVANCED_FACE ( 'NONE', ( #58 ), #292, .F. ) ;
#190 = DIRECTION ( 'NONE',  ( -0.000000000000000000, -0.000000000000000000, -1.000000000000000000 ) ) ;
#191 = DATE_TIME_ROLE ( 'classification_date' ) ;
#192 = CC_DESIGN_PERSON_AND_ORGANIZATION_ASSIGNMENT ( #237, #121, ( #214 ) ) ;
#193 = APPLICATION_CONTEXT ( 'configuration controlled 3d designs of mechanical parts and assemblies' ) ;
#194 = APPROVAL_ROLE ( '' ) ;
#195 = EDGE_LOOP ( 'NONE', ( #269, #199 ) ) ;
#196 = CIRCLE ( 'NONE', #64, 2.750000000000000000 ) ;
#197 = ADVANCED_FACE ( 'NONE', ( #57 ), #253, .T. ) ;
#198 = AXIS2_PLACEMENT_3D ( 'NONE', #165, #160, #45 ) ;
#199 = ORIENTED_EDGE ( 'NONE', *, *, #74, .F. ) ;
#200 = CARTESIAN_POINT ( 'NONE',  ( -2.949999999999999734, 3.612708057484692097E-16, 2.999999999999990674 ) ) ;
#201 = ORIENTED_EDGE ( 'NONE', *, *, #203, .T. ) ;
#202 = DIRECTION ( 'NONE',  ( -1.000000000000000000, 0.000000000000000000, 0.000000000000000000 ) ) ;
#203 = EDGE_CURVE ( 'NONE', #246, #33, #136, .T. ) ;
#204 = VERTEX_POINT ( 'NONE', #184 ) ;
#205 = CARTESIAN_POINT ( 'NONE',  ( -5.000000000000000000, 0.000000000000000000, 3.000000000000000000 ) ) ;
#206 = CIRCLE ( 'NONE', #92, 0.2000000000000000944 ) ;
#207 = PLANE ( 'NONE',  #65 ) ;
#208 = CARTESIAN_POINT ( 'NONE',  ( 0.000000000000000000, 0.000000000000000000, 3.199999999999980638 ) ) ;
#209 = DESIGN_CONTEXT ( 'detailed design', #193, 'design' ) ;
#210 = PLANE ( 'NONE',  #268 ) ;
#211 = DIRECTION ( 'NONE',  ( 1.000000000000000000, 0.000000000000000000, -0.000000000000000000 ) ) ;
#212 = CARTESIAN_POINT ( 'NONE',  ( 2.750000000000000000, 3.367778697655221012E-16, 403.0000000000000000 ) ) ;
#213 = PRODUCT_DEFINITION_FORMATION_WITH_SPECIFIED_SOURCE ( 'LIBOVOLNÝ', '', #29, .NOT_KNOWN. ) ;
#214 = SECURITY_CLASSIFICATION ( '', '', #169 ) ;
#215 = PERSON_AND_ORGANIZATION ( #166, #174 ) ;
#216 = EDGE_CURVE ( 'NONE', #223, #204, #168, .T. ) ;
#217 = COORDINATED_UNIVERSAL_TIME_OFFSET ( 1, 0, .AHEAD. ) ;
#218 = APPLICATION_PROTOCOL_DEFINITION ( 'international standard', 'config_control_design', 1994, #193 ) ;
#219 = ADVANCED_FACE ( 'NONE', ( #305 ), #87, .T. ) ;
#220 = DIRECTION ( 'NONE',  ( 1.000000000000000000, 0.000000000000000000, 0.000000000000000000 ) ) ;
#221 = TOROIDAL_SURFACE ( 'NONE', #88, 2.949999999999999734, 0.2000000000000000111 ) ;
#222 = EDGE_LOOP ( 'NONE', ( #80, #245, #106, #13 ) ) ;
#223 = VERTEX_POINT ( 'NONE', #47 ) ;
#224 = CC_DESIGN_DATE_AND_TIME_ASSIGNMENT ( #284, #266, ( #178 ) ) ;
#225 = DIRECTION ( 'NONE',  ( -0.000000000000000000, -0.000000000000000000, -1.000000000000000000 ) ) ;
#226 = EDGE_LOOP ( 'NONE', ( #158, #133, #299, #153 ) ) ;
#227 = DIRECTION ( 'NONE',  ( -0.000000000000000000, -0.000000000000000000, -1.000000000000000000 ) ) ;
#228 = LOCAL_TIME ( 14, 43, 11.00000000000000000, #71 ) ;
#229 = DIRECTION ( 'NONE',  ( -0.000000000000000000, -0.000000000000000000, -1.000000000000000000 ) ) ;
#230 = DIRECTION ( 'NONE',  ( 0.000000000000000000, -1.000000000000000000, 0.000000000000000000 ) ) ;
#231 = CARTESIAN_POINT ( 'NONE',  ( 2.949999999999999734, 0.000000000000000000, 3.199999999999980638 ) ) ;
#232 = APPROVAL_PERSON_ORGANIZATION ( #171, #17, #49 ) ;
#233 = CARTESIAN_POINT ( 'NONE',  ( 0.000000000000000000, 0.000000000000000000, 403.0000000000000000 ) ) ;
#234 = CARTESIAN_POINT ( 'NONE',  ( 0.000000000000000000, 0.000000000000000000, 0.000000000000000000 ) ) ;
#235 = APPLICATION_PROTOCOL_DEFINITION ( 'international standard', 'config_control_design', 1994, #139 ) ;
#236 = CIRCLE ( 'NONE', #163, 0.2000000000000000944 ) ;
#237 = PERSON_AND_ORGANIZATION ( #166, #174 ) ;
#238 = EDGE_CURVE ( 'NONE', #126, #223, #145, .T. ) ;
#239 = APPROVAL_ROLE ( '' ) ;
#240 = VERTEX_POINT ( 'NONE', #140 ) ;
#241 = CIRCLE ( 'NONE', #77, 5.000000000000000000 ) ;
#242 = CALENDAR_DATE ( 2022, 7, 7 ) ;
#243 = EDGE_CURVE ( 'NONE', #204, #38, #206, .T. ) ;
#244 = VERTEX_POINT ( 'NONE', #185 ) ;
#245 = ORIENTED_EDGE ( 'NONE', *, *, #265, .F. ) ;
#246 = VERTEX_POINT ( 'NONE', #167 ) ;
#247 = DIRECTION ( 'NONE',  ( -0.000000000000000000, -0.000000000000000000, -1.000000000000000000 ) ) ;
#248 = ADVANCED_FACE ( 'NONE', ( #142 ), #210, .F. ) ;
#249 = DIRECTION ( 'NONE',  ( 1.224646799147353207E-16, 1.000000000000000000, -0.000000000000000000 ) ) ;
#250 = ORIENTED_EDGE ( 'NONE', *, *, #135, .F. ) ;
#251 = CARTESIAN_POINT ( 'NONE',  ( -2.949999999999999734, 3.612708057484692097E-16, 3.199999999999980638 ) ) ;
#252 = LOCAL_TIME ( 14, 43, 11.00000000000000000, #217 ) ;
#253 = PLANE ( 'NONE',  #101 ) ;
#254 = CIRCLE ( 'NONE', #23, 5.000000000000000000 ) ;
#255 = ADVANCED_FACE ( 'NONE', ( #186 ), #115, .T. ) ;
#256 = DIRECTION ( 'NONE',  ( 0.000000000000000000, 0.000000000000000000, 1.000000000000000000 ) ) ;
#257 = PRODUCT_DEFINITION_SHAPE ( 'NONE', 'NONE',  #178 ) ;
#258 = DIRECTION ( 'NONE',  ( 0.000000000000000000, 0.000000000000000000, 1.000000000000000000 ) ) ;
#259 = CARTESIAN_POINT ( 'NONE',  ( 0.000000000000000000, 0.000000000000000000, 3.000000000000000000 ) ) ;
#260 = AXIS2_PLACEMENT_3D ( 'NONE', #259, #229, #15 ) ;
#261 = CARTESIAN_POINT ( 'NONE',  ( 0.000000000000000000, 0.000000000000000000, 403.0000000000000000 ) ) ;
#262 =( NAMED_UNIT ( * ) SI_UNIT ( $, .STERADIAN. ) SOLID_ANGLE_UNIT ( ) );
#263 = DATE_AND_TIME ( #94, #161 ) ;
#264 = APPROVAL_DATE_TIME ( #96, #286 ) ;
#265 = EDGE_CURVE ( 'NONE', #204, #61, #283, .T. ) ;
#266 = DATE_TIME_ROLE ( 'creation_date' ) ;
#267 = EDGE_LOOP ( 'NONE', ( #130, #134 ) ) ;
#268 = AXIS2_PLACEMENT_3D ( 'NONE', #234, #300, #211 ) ;
#269 = ORIENTED_EDGE ( 'NONE', *, *, #36, .F. ) ;
#270 = FACE_OUTER_BOUND ( 'NONE', #98, .T. ) ;
#271 = CARTESIAN_POINT ( 'NONE',  ( 0.000000000000000000, 0.000000000000000000, 3.000000000000000000 ) ) ;
#272 = APPROVAL_PERSON_ORGANIZATION ( #72, #286, #239 ) ;
#273 = CARTESIAN_POINT ( 'NONE',  ( -2.750000000000000000, 0.000000000000000000, 3.199999999999980638 ) ) ;
#274 = ORIENTED_EDGE ( 'NONE', *, *, #114, .T. ) ;
#275 = ORIENTED_EDGE ( 'NONE', *, *, #155, .F. ) ;
#276 = CARTESIAN_POINT ( 'NONE',  ( 0.000000000000000000, 0.000000000000000000, 3.000000000000000000 ) ) ;
#277 = DIRECTION ( 'NONE',  ( -1.000000000000000000, 0.000000000000000000, 0.000000000000000000 ) ) ;
#278 = VECTOR ( 'NONE', #190, 1000.000000000000000 ) ;
#279 = DIRECTION ( 'NONE',  ( 0.000000000000000000, 0.000000000000000000, 1.000000000000000000 ) ) ;
#280 = EDGE_CURVE ( 'NONE', #38, #62, #7, .T. ) ;
#281 = FACE_OUTER_BOUND ( 'NONE', #222, .T. ) ;
#282 = CARTESIAN_POINT ( 'NONE',  ( 0.000000000000000000, 0.000000000000000000, 3.000000000000000000 ) ) ;
#283 = CIRCLE ( 'NONE', #99, 2.750000000000000000 ) ;
#284 = DATE_AND_TIME ( #149, #228 ) ;
#285 = DIRECTION ( 'NONE',  ( 1.000000000000000000, 0.000000000000000000, 0.000000000000000000 ) ) ;
#286 = APPROVAL ( #147, 'NEURÈENÝ' ) ;
#287 = MECHANICAL_CONTEXT ( 'NONE', #139, 'mechanical' ) ;
#288 = ADVANCED_BREP_SHAPE_REPRESENTATION ( '74b0', ( #35, #75 ), #304 ) ;
#289 = APPROVAL_DATE_TIME ( #5, #17 ) ;
#290 = CC_DESIGN_PERSON_AND_ORGANIZATION_ASSIGNMENT ( #146, #143, ( #213 ) ) ;
#291 = COORDINATED_UNIVERSAL_TIME_OFFSET ( 1, 0, .AHEAD. ) ;
#292 = TOROIDAL_SURFACE ( 'NONE', #198, 2.949999999999999734, 0.2000000000000000111 ) ;
#293 = AXIS2_PLACEMENT_3D ( 'NONE', #271, #37, #177 ) ;
#294 = ORIENTED_EDGE ( 'NONE', *, *, #155, .T. ) ;
#295 = CARTESIAN_POINT ( 'NONE',  ( 0.000000000000000000, 0.000000000000000000, 3.000000000000000000 ) ) ;
#296 = ADVANCED_FACE ( 'NONE', ( #111 ), #89, .T. ) ;
#297 = CARTESIAN_POINT ( 'NONE',  ( 5.000000000000000000, 6.123233995736766282E-16, 3.000000000000000000 ) ) ;
#298 = DIRECTION ( 'NONE',  ( -1.000000000000000000, 1.224646799147353207E-16, 0.000000000000000000 ) ) ;
#299 = ORIENTED_EDGE ( 'NONE', *, *, #280, .F. ) ;
#300 = DIRECTION ( 'NONE',  ( 0.000000000000000000, 0.000000000000000000, 1.000000000000000000 ) ) ;
#301 = EDGE_CURVE ( 'NONE', #61, #204, #176, .T. ) ;
#302 = CARTESIAN_POINT ( 'NONE',  ( 0.000000000000000000, 0.000000000000000000, 3.199999999999980638 ) ) ;
#303 = DIRECTION ( 'NONE',  ( 1.000000000000000000, 0.000000000000000000, 0.000000000000000000 ) ) ;
#304 =( GEOMETRIC_REPRESENTATION_CONTEXT ( 3 ) GLOBAL_UNCERTAINTY_ASSIGNED_CONTEXT ( ( #48 ) ) GLOBAL_UNIT_ASSIGNED_CONTEXT ( ( #66, #19, #262 ) ) REPRESENTATION_CONTEXT ( 'NONE', 'WORKASPACE' ) );
#305 = FACE_OUTER_BOUND ( 'NONE', #131, .T. ) ;
#306 = VECTOR ( 'NONE', #227, 1000.000000000000000 ) ;
#307 = ADVANCED_FACE ( 'NONE', ( #281 ), #221, .F. ) ;
ENDSEC;
END-ISO-10303-21;
