ISO-10303-21;
HEADER;
FILE_DESCRIPTION (( 'STEP AP203' ),
    '1' );
FILE_NAME ('c506.STEP',
    '2022-07-07T12:54:03',
    ( '' ),
    ( '' ),
    'SwSTEP 2.0',
    'SolidWorks 2019',
    '' );
FILE_SCHEMA (( 'CONFIG_CONTROL_DESIGN' ));
ENDSEC;

DATA;
#1 = DIRECTION ( 'NONE',  ( 1.000000000000000000, 0.000000000000000000, 0.000000000000000000 ) ) ;
#2 = VERTEX_POINT ( 'NONE', #121 ) ;
#3 = FACE_BOUND ( 'NONE', #14, .T. ) ;
#4 = LINE ( 'NONE', #73, #191 ) ;
#5 = AXIS2_PLACEMENT_3D ( 'NONE', #149, #155, #301 ) ;
#6 = PERSON_AND_ORGANIZATION ( #151, #211 ) ;
#7 = COORDINATED_UNIVERSAL_TIME_OFFSET ( 1, 0, .AHEAD. ) ;
#8 = PERSON_AND_ORGANIZATION_ROLE ( 'design_supplier' ) ;
#9 = UNCERTAINTY_MEASURE_WITH_UNIT (LENGTH_MEASURE( 1.000000000000000082E-05 ), #212, 'distance_accuracy_value', 'NONE');
#10 = EDGE_CURVE ( 'NONE', #307, #108, #91, .T. ) ;
#11 = CALENDAR_DATE ( 2022, 7, 7 ) ;
#12 = PERSON_AND_ORGANIZATION_ROLE ( 'creator' ) ;
#13 = VERTEX_POINT ( 'NONE', #146 ) ;
#14 = EDGE_LOOP ( 'NONE', ( #200, #22 ) ) ;
#15 = AXIS2_PLACEMENT_3D ( 'NONE', #178, #243, #276 ) ;
#16 = EDGE_LOOP ( 'NONE', ( #176, #281 ) ) ;
#17 = CIRCLE ( 'NONE', #273, 3.000000000000000444 ) ;
#18 = CARTESIAN_POINT ( 'NONE',  ( 0.000000000000000000, 0.000000000000000000, 0.000000000000000000 ) ) ;
#19 = CARTESIAN_POINT ( 'NONE',  ( 0.000000000000000000, 0.000000000000000000, 203.0000000000000000 ) ) ;
#20 = LINE ( 'NONE', #92, #96 ) ;
#21 = EDGE_LOOP ( 'NONE', ( #113, #304, #94, #174 ) ) ;
#22 = ORIENTED_EDGE ( 'NONE', *, *, #259, .T. ) ;
#23 = VERTEX_POINT ( 'NONE', #241 ) ;
#24 = DIRECTION ( 'NONE',  ( 0.000000000000000000, 0.000000000000000000, 1.000000000000000000 ) ) ;
#25 = APPROVAL_PERSON_ORGANIZATION ( #172, #305, #250 ) ;
#26 = DIRECTION ( 'NONE',  ( 1.000000000000000000, 0.000000000000000000, 0.000000000000000000 ) ) ;
#27 = PLANE ( 'NONE',  #36 ) ;
#28 = CARTESIAN_POINT ( 'NONE',  ( 0.000000000000000000, 0.000000000000000000, 3.000000000000000000 ) ) ;
#29 = APPLICATION_CONTEXT ( 'configuration controlled 3d designs of mechanical parts and assemblies' ) ;
#30 = CARTESIAN_POINT ( 'NONE',  ( 0.000000000000000000, 0.000000000000000000, 0.000000000000000000 ) ) ;
#31 = PRODUCT ( 'c506', 'c506', '', ( #194 ) ) ;
#32 = APPLICATION_PROTOCOL_DEFINITION ( 'international standard', 'config_control_design', 1994, #29 ) ;
#33 = COORDINATED_UNIVERSAL_TIME_OFFSET ( 1, 0, .AHEAD. ) ;
#34 = DATE_AND_TIME ( #195, #119 ) ;
#35 = EDGE_CURVE ( 'NONE', #162, #72, #197, .T. ) ;
#36 = AXIS2_PLACEMENT_3D ( 'NONE', #278, #65, #266 ) ;
#37 = CALENDAR_DATE ( 2022, 7, 7 ) ;
#38 = EDGE_LOOP ( 'NONE', ( #204, #261 ) ) ;
#39 = DIRECTION ( 'NONE',  ( -1.000000000000000000, 0.000000000000000000, 0.000000000000000000 ) ) ;
#40 = EDGE_CURVE ( 'NONE', #210, #2, #17, .T. ) ;
#41 = CARTESIAN_POINT ( 'NONE',  ( 0.000000000000000000, 0.000000000000000000, 3.000000000000000000 ) ) ;
#42 = DIRECTION ( 'NONE',  ( 1.000000000000000000, 0.000000000000000000, 0.000000000000000000 ) ) ;
#43 = AXIS2_PLACEMENT_3D ( 'NONE', #117, #75, #39 ) ;
#44 = CARTESIAN_POINT ( 'NONE',  ( -1.600000000000000089, 0.000000000000000000, 3.200000000000008171 ) ) ;
#45 = CIRCLE ( 'NONE', #299, 1.600000000000000089 ) ;
#46 = CYLINDRICAL_SURFACE ( 'NONE', #79, 3.000000000000000444 ) ;
#47 = ORIENTED_EDGE ( 'NONE', *, *, #202, .F. ) ;
#48 = DIRECTION ( 'NONE',  ( 0.000000000000000000, 0.000000000000000000, -1.000000000000000000 ) ) ;
#49 = CIRCLE ( 'NONE', #218, 3.000000000000000444 ) ;
#50 = CYLINDRICAL_SURFACE ( 'NONE', #57, 1.600000000000000089 ) ;
#51 = CARTESIAN_POINT ( 'NONE',  ( -1.800000000000000266, 2.204364238465236069E-16, 3.200000000000008171 ) ) ;
#52 = PRODUCT_DEFINITION ( 'NEZNÁMÝ', '', #297, #271 ) ;
#53 = CALENDAR_DATE ( 2022, 7, 7 ) ;
#54 = APPROVAL_ROLE ( '' ) ;
#55 = CIRCLE ( 'NONE', #88, 1.600000000000000089 ) ;
#56 = DIRECTION ( 'NONE',  ( 0.000000000000000000, 0.000000000000000000, 1.000000000000000000 ) ) ;
#57 = AXIS2_PLACEMENT_3D ( 'NONE', #148, #255, #166 ) ;
#58 = APPROVAL_DATE_TIME ( #223, #237 ) ;
#59 = ADVANCED_FACE ( 'NONE', ( #142 ), #46, .T. ) ;
#60 = DATE_AND_TIME ( #53, #154 ) ;
#61 = CC_DESIGN_PERSON_AND_ORGANIZATION_ASSIGNMENT ( #103, #270, ( #52 ) ) ;
#62 = CC_DESIGN_DATE_AND_TIME_ASSIGNMENT ( #34, #224, ( #253 ) ) ;
#63 = EDGE_CURVE ( 'NONE', #120, #108, #45, .T. ) ;
#64 = DIRECTION ( 'NONE',  ( 1.000000000000000000, 0.000000000000000000, 0.000000000000000000 ) ) ;
#65 = DIRECTION ( 'NONE',  ( 0.000000000000000000, 0.000000000000000000, 1.000000000000000000 ) ) ;
#66 = FACE_OUTER_BOUND ( 'NONE', #83, .T. ) ;
#67 = DIRECTION ( 'NONE',  ( 1.000000000000000000, 0.000000000000000000, 0.000000000000000000 ) ) ;
#68 = CIRCLE ( 'NONE', #167, 1.800000000000000266 ) ;
#69 = ORIENTED_EDGE ( 'NONE', *, *, #10, .T. ) ;
#70 = ORIENTED_EDGE ( 'NONE', *, *, #232, .T. ) ;
#71 = DIRECTION ( 'NONE',  ( -1.000000000000000000, 1.224646799147354686E-16, 0.000000000000000000 ) ) ;
#72 = VERTEX_POINT ( 'NONE', #260 ) ;
#73 = CARTESIAN_POINT ( 'NONE',  ( -1.600000000000000089, 0.000000000000000000, 203.0000000000000000 ) ) ;
#74 = CC_DESIGN_APPROVAL ( #305, ( #52 ) ) ;
#75 = DIRECTION ( 'NONE',  ( -0.000000000000000000, -0.000000000000000000, -1.000000000000000000 ) ) ;
#76 = COORDINATED_UNIVERSAL_TIME_OFFSET ( 1, 0, .AHEAD. ) ;
#77 = CC_DESIGN_APPROVAL ( #237, ( #297 ) ) ;
#78 = APPROVAL_STATUS ( 'not_yet_approved' ) ;
#79 = AXIS2_PLACEMENT_3D ( 'NONE', #90, #183, #213 ) ;
#80 = CALENDAR_DATE ( 2022, 7, 7 ) ;
#81 = ADVANCED_FACE ( 'NONE', ( #279 ), #239, .T. ) ;
#82 = AXIS2_PLACEMENT_3D ( 'NONE', #51, #215, #71 ) ;
#83 = EDGE_LOOP ( 'NONE', ( #294, #230, #275, #274 ) ) ;
#84 = TOROIDAL_SURFACE ( 'NONE', #207, 1.800000000000000266, 0.2000000000000000111 ) ;
#85 = AXIS2_PLACEMENT_3D ( 'NONE', #122, #209, #124 ) ;
#86 = EDGE_LOOP ( 'NONE', ( #165, #69, #111, #139 ) ) ;
#87 = DIRECTION ( 'NONE',  ( 0.000000000000000000, -1.000000000000000000, 0.000000000000000000 ) ) ;
#88 = AXIS2_PLACEMENT_3D ( 'NONE', #19, #89, #190 ) ;
#89 = DIRECTION ( 'NONE',  ( 0.000000000000000000, 0.000000000000000000, 1.000000000000000000 ) ) ;
#90 = CARTESIAN_POINT ( 'NONE',  ( 0.000000000000000000, 0.000000000000000000, 3.000000000000000000 ) ) ;
#91 = LINE ( 'NONE', #234, #214 ) ;
#92 = CARTESIAN_POINT ( 'NONE',  ( 3.000000000000000444, 3.673940397442060361E-16, 3.000000000000000000 ) ) ;
#93 = CIRCLE ( 'NONE', #236, 0.2000000000000000944 ) ;
#94 = ORIENTED_EDGE ( 'NONE', *, *, #193, .T. ) ;
#95 = CARTESIAN_POINT ( 'NONE',  ( 1.800000000000000266, 0.000000000000000000, 3.000000000000004441 ) ) ;
#96 = VECTOR ( 'NONE', #235, 1000.000000000000000 ) ;
#97 = DIRECTION ( 'NONE',  ( 0.000000000000000000, 0.000000000000000000, 1.000000000000000000 ) ) ;
#98 = CYLINDRICAL_SURFACE ( 'NONE', #43, 1.600000000000000089 ) ;
#99 = DIRECTION ( 'NONE',  ( -0.000000000000000000, -0.000000000000000000, -1.000000000000000000 ) ) ;
#100 = CIRCLE ( 'NONE', #247, 3.000000000000000444 ) ;
#101 = PERSON_AND_ORGANIZATION ( #151, #211 ) ;
#102 = AXIS2_PLACEMENT_3D ( 'NONE', #181, #280, #26 ) ;
#103 = PERSON_AND_ORGANIZATION ( #151, #211 ) ;
#104 = PRODUCT_DEFINITION_SHAPE ( 'NONE', 'NONE',  #52 ) ;
#105 = PERSON_AND_ORGANIZATION_ROLE ( 'design_owner' ) ;
#106 = EDGE_CURVE ( 'NONE', #2, #13, #20, .T. ) ;
#107 = APPROVAL_DATE_TIME ( #169, #305 ) ;
#108 = VERTEX_POINT ( 'NONE', #186 ) ;
#109 = PERSON_AND_ORGANIZATION ( #151, #211 ) ;
#110 = ADVANCED_FACE ( 'NONE', ( #182 ), #256, .F. ) ;
#111 = ORIENTED_EDGE ( 'NONE', *, *, #205, .T. ) ;
#112 = LOCAL_TIME ( 14, 54, 3.000000000000000000, #33 ) ;
#113 = ORIENTED_EDGE ( 'NONE', *, *, #140, .F. ) ;
#114 = AXIS2_PLACEMENT_3D ( 'NONE', #159, #208, #160 ) ;
#115 = DIRECTION ( 'NONE',  ( 0.000000000000000000, 0.000000000000000000, 1.000000000000000000 ) ) ;
#116 = PRODUCT_RELATED_PRODUCT_CATEGORY ( 'detail', '', ( #31 ) ) ;
#117 = CARTESIAN_POINT ( 'NONE',  ( 0.000000000000000000, 0.000000000000000000, 203.0000000000000000 ) ) ;
#118 = ORIENTED_EDGE ( 'NONE', *, *, #35, .F. ) ;
#119 = LOCAL_TIME ( 14, 54, 3.000000000000000000, #7 ) ;
#120 = VERTEX_POINT ( 'NONE', #44 ) ;
#121 = CARTESIAN_POINT ( 'NONE',  ( 3.000000000000000444, 3.673940397442060361E-16, 3.000000000000000000 ) ) ;
#122 = CARTESIAN_POINT ( 'NONE',  ( 0.000000000000000000, 0.000000000000000000, 203.0000000000000000 ) ) ;
#123 = APPROVAL_PERSON_ORGANIZATION ( #192, #220, #54 ) ;
#124 = DIRECTION ( 'NONE',  ( 1.000000000000000000, 0.000000000000000000, -0.000000000000000000 ) ) ;
#125 = ADVANCED_FACE ( 'NONE', ( #66 ), #238, .T. ) ;
#126 = DIRECTION ( 'NONE',  ( 1.000000000000000000, 0.000000000000000000, 0.000000000000000000 ) ) ;
#127 = DIRECTION ( 'NONE',  ( -0.000000000000000000, -0.000000000000000000, -1.000000000000000000 ) ) ;
#128 = ADVANCED_FACE ( 'NONE', ( #265 ), #50, .T. ) ;
#129 = LINE ( 'NONE', #147, #287 ) ;
#130 = CIRCLE ( 'NONE', #153, 1.600000000000000089 ) ;
#131 = CC_DESIGN_PERSON_AND_ORGANIZATION_ASSIGNMENT ( #6, #8, ( #297 ) ) ;
#132 = DATE_TIME_ROLE ( 'creation_date' ) ;
#133 = EDGE_CURVE ( 'NONE', #120, #72, #283, .T. ) ;
#134 = APPROVAL_STATUS ( 'not_yet_approved' ) ;
#135 = ORIENTED_EDGE ( 'NONE', *, *, #228, .T. ) ;
#136 = ORIENTED_EDGE ( 'NONE', *, *, #228, .F. ) ;
#137 = DIRECTION ( 'NONE',  ( 1.000000000000000000, 0.000000000000000000, 0.000000000000000000 ) ) ;
#138 = DIRECTION ( 'NONE',  ( 0.000000000000000000, 0.000000000000000000, 1.000000000000000000 ) ) ;
#139 = ORIENTED_EDGE ( 'NONE', *, *, #286, .F. ) ;
#140 = EDGE_CURVE ( 'NONE', #2, #210, #189, .T. ) ;
#141 = CARTESIAN_POINT ( 'NONE',  ( 0.000000000000000000, 0.000000000000000000, 3.200000000000008171 ) ) ;
#142 = FACE_OUTER_BOUND ( 'NONE', #21, .T. ) ;
#143 = LOCAL_TIME ( 14, 54, 3.000000000000000000, #76 ) ;
#144 = ORIENTED_EDGE ( 'NONE', *, *, #202, .T. ) ;
#145 = CARTESIAN_POINT ( 'NONE',  ( 0.000000000000000000, 0.000000000000000000, 3.200000000000008171 ) ) ;
#146 = CARTESIAN_POINT ( 'NONE',  ( 3.000000000000000444, 3.673940397442060361E-16, 0.000000000000000000 ) ) ;
#147 = CARTESIAN_POINT ( 'NONE',  ( -3.000000000000000444, 0.000000000000000000, 3.000000000000000000 ) ) ;
#148 = CARTESIAN_POINT ( 'NONE',  ( 0.000000000000000000, 0.000000000000000000, 203.0000000000000000 ) ) ;
#149 = CARTESIAN_POINT ( 'NONE',  ( 0.000000000000000000, 0.000000000000000000, 0.000000000000000000 ) ) ;
#150 = COORDINATED_UNIVERSAL_TIME_OFFSET ( 1, 0, .AHEAD. ) ;
#151 = PERSON ( 'NEURÈENÝ', 'NEURÈENÝ', 'NEURÈENÝ', ('NEURÈENÝ'), ('NEURÈENÝ'), ('NEURÈENÝ') ) ;
#152 = SECURITY_CLASSIFICATION_LEVEL ( 'unclassified' ) ;
#153 = AXIS2_PLACEMENT_3D ( 'NONE', #263, #177, #137 ) ;
#154 = LOCAL_TIME ( 14, 54, 3.000000000000000000, #292 ) ;
#155 = DIRECTION ( 'NONE',  ( 0.000000000000000000, 0.000000000000000000, 1.000000000000000000 ) ) ;
#156 = EDGE_CURVE ( 'NONE', #210, #23, #129, .T. ) ;
#157 = ORIENTED_EDGE ( 'NONE', *, *, #286, .T. ) ;
#158 = FACE_OUTER_BOUND ( 'NONE', #199, .T. ) ;
#159 = CARTESIAN_POINT ( 'NONE',  ( 0.000000000000000000, 0.000000000000000000, 3.200000000000008171 ) ) ;
#160 = DIRECTION ( 'NONE',  ( 1.000000000000000000, 0.000000000000000000, 0.000000000000000000 ) ) ;
#161 = APPROVAL_PERSON_ORGANIZATION ( #226, #237, #219 ) ;
#162 = VERTEX_POINT ( 'NONE', #95 ) ;
#163 = EDGE_LOOP ( 'NONE', ( #135, #70 ) ) ;
#164 = CARTESIAN_POINT ( 'NONE',  ( 0.000000000000000000, 0.000000000000000000, 3.000000000000000000 ) ) ;
#165 = ORIENTED_EDGE ( 'NONE', *, *, #232, .F. ) ;
#166 = DIRECTION ( 'NONE',  ( -1.000000000000000000, 0.000000000000000000, 0.000000000000000000 ) ) ;
#167 = AXIS2_PLACEMENT_3D ( 'NONE', #254, #217, #206 ) ;
#168 = ADVANCED_FACE ( 'NONE', ( #285 ), #245, .F. ) ;
#169 = DATE_AND_TIME ( #80, #112 ) ;
#170 = CARTESIAN_POINT ( 'NONE',  ( 0.000000000000000000, 0.000000000000000000, 0.000000000000000000 ) ) ;
#171 = AXIS2_PLACEMENT_3D ( 'NONE', #170, #56, #252 ) ;
#172 = PERSON_AND_ORGANIZATION ( #151, #211 ) ;
#173 = CC_DESIGN_PERSON_AND_ORGANIZATION_ASSIGNMENT ( #109, #12, ( #297 ) ) ;
#174 = ORIENTED_EDGE ( 'NONE', *, *, #156, .F. ) ;
#175 = ORIENTED_EDGE ( 'NONE', *, *, #63, .F. ) ;
#176 = ORIENTED_EDGE ( 'NONE', *, *, #40, .T. ) ;
#177 = DIRECTION ( 'NONE',  ( 0.000000000000000000, 0.000000000000000000, 1.000000000000000000 ) ) ;
#178 = CARTESIAN_POINT ( 'NONE',  ( 0.000000000000000000, 0.000000000000000000, 203.0000000000000000 ) ) ;
#179 = DIRECTION ( 'NONE',  ( 0.000000000000000000, 0.000000000000000000, 1.000000000000000000 ) ) ;
#180 = APPLICATION_CONTEXT ( 'configuration controlled 3d designs of mechanical parts and assemblies' ) ;
#181 = CARTESIAN_POINT ( 'NONE',  ( 0.000000000000000000, 0.000000000000000000, 3.000000000000000000 ) ) ;
#182 = FACE_OUTER_BOUND ( 'NONE', #306, .T. ) ;
#183 = DIRECTION ( 'NONE',  ( -0.000000000000000000, -0.000000000000000000, -1.000000000000000000 ) ) ;
#184 = AXIS2_PLACEMENT_3D ( 'NONE', #28, #127, #244 ) ;
#185 = FACE_OUTER_BOUND ( 'NONE', #86, .T. ) ;
#186 = CARTESIAN_POINT ( 'NONE',  ( 1.600000000000000089, 1.959434878635765230E-16, 3.200000000000008171 ) ) ;
#187 = DIRECTION ( 'NONE',  ( 1.000000000000000000, 0.000000000000000000, 0.000000000000000000 ) ) ;
#188 = ADVANCED_FACE ( 'NONE', ( #185 ), #98, .T. ) ;
#189 = CIRCLE ( 'NONE', #269, 3.000000000000000444 ) ;
#190 = DIRECTION ( 'NONE',  ( 1.000000000000000000, 0.000000000000000000, 0.000000000000000000 ) ) ;
#191 = VECTOR ( 'NONE', #99, 1000.000000000000000 ) ;
#192 = PERSON_AND_ORGANIZATION ( #151, #211 ) ;
#193 = EDGE_CURVE ( 'NONE', #13, #23, #100, .T. ) ;
#194 = MECHANICAL_CONTEXT ( 'NONE', #29, 'mechanical' ) ;
#195 = CALENDAR_DATE ( 2022, 7, 7 ) ;
#196 = DATE_AND_TIME ( #11, #143 ) ;
#197 = CIRCLE ( 'NONE', #102, 1.800000000000000266 ) ;
#198 = EDGE_LOOP ( 'NONE', ( #258, #136, #157, #300 ) ) ;
#199 = EDGE_LOOP ( 'NONE', ( #175, #277, #118, #47 ) ) ;
#200 = ORIENTED_EDGE ( 'NONE', *, *, #35, .T. ) ;
#201 = ORIENTED_EDGE ( 'NONE', *, *, #205, .F. ) ;
#202 = EDGE_CURVE ( 'NONE', #108, #162, #93, .T. ) ;
#203 = DIRECTION ( 'NONE',  ( -0.000000000000000000, -0.000000000000000000, -1.000000000000000000 ) ) ;
#204 = ORIENTED_EDGE ( 'NONE', *, *, #249, .F. ) ;
#205 = EDGE_CURVE ( 'NONE', #108, #120, #130, .T. ) ;
#206 = DIRECTION ( 'NONE',  ( 1.000000000000000000, 0.000000000000000000, 0.000000000000000000 ) ) ;
#207 = AXIS2_PLACEMENT_3D ( 'NONE', #141, #115, #126 ) ;
#208 = DIRECTION ( 'NONE',  ( 0.000000000000000000, 0.000000000000000000, 1.000000000000000000 ) ) ;
#209 = DIRECTION ( 'NONE',  ( 0.000000000000000000, 0.000000000000000000, 1.000000000000000000 ) ) ;
#210 = VERTEX_POINT ( 'NONE', #233 ) ;
#211 = ORGANIZATION ( 'NEURÈENÝ', 'NEURÈENÝ', '' ) ;
#212 =( LENGTH_UNIT ( ) NAMED_UNIT ( * ) SI_UNIT ( .MILLI., .METRE. ) );
#213 = DIRECTION ( 'NONE',  ( -1.000000000000000000, 0.000000000000000000, 0.000000000000000000 ) ) ;
#214 = VECTOR ( 'NONE', #262, 1000.000000000000000 ) ;
#215 = DIRECTION ( 'NONE',  ( 1.224646799147353207E-16, 1.000000000000000000, -0.000000000000000000 ) ) ;
#216 = CC_DESIGN_PERSON_AND_ORGANIZATION_ASSIGNMENT ( #295, #105, ( #31 ) ) ;
#217 = DIRECTION ( 'NONE',  ( -0.000000000000000000, -0.000000000000000000, -1.000000000000000000 ) ) ;
#218 = AXIS2_PLACEMENT_3D ( 'NONE', #18, #24, #187 ) ;
#219 = APPROVAL_ROLE ( '' ) ;
#220 = APPROVAL ( #290, 'NEURÈENÝ' ) ;
#221 = APPLICATION_PROTOCOL_DEFINITION ( 'international standard', 'config_control_design', 1994, #180 ) ;
#222 = ADVANCED_BREP_SHAPE_REPRESENTATION ( 'c506', ( #240, #171 ), #303 ) ;
#223 = DATE_AND_TIME ( #37, #229 ) ;
#224 = DATE_TIME_ROLE ( 'classification_date' ) ;
#225 = CC_DESIGN_SECURITY_CLASSIFICATION ( #253, ( #297 ) ) ;
#226 = PERSON_AND_ORGANIZATION ( #151, #211 ) ;
#227 = VERTEX_POINT ( 'NONE', #302 ) ;
#228 = EDGE_CURVE ( 'NONE', #227, #307, #272, .T. ) ;
#229 = LOCAL_TIME ( 14, 54, 3.000000000000000000, #150 ) ;
#230 = ORIENTED_EDGE ( 'NONE', *, *, #40, .F. ) ;
#231 = FACE_OUTER_BOUND ( 'NONE', #16, .T. ) ;
#232 = EDGE_CURVE ( 'NONE', #307, #227, #55, .T. ) ;
#233 = CARTESIAN_POINT ( 'NONE',  ( -3.000000000000000444, 0.000000000000000000, 3.000000000000000000 ) ) ;
#234 = CARTESIAN_POINT ( 'NONE',  ( 1.600000000000000089, 1.959434878635765230E-16, 203.0000000000000000 ) ) ;
#235 = DIRECTION ( 'NONE',  ( -0.000000000000000000, -0.000000000000000000, -1.000000000000000000 ) ) ;
#236 = AXIS2_PLACEMENT_3D ( 'NONE', #284, #87, #48 ) ;
#237 = APPROVAL ( #78, 'NEURÈENÝ' ) ;
#238 = CYLINDRICAL_SURFACE ( 'NONE', #184, 3.000000000000000444 ) ;
#239 = PLANE ( 'NONE',  #85 ) ;
#240 = MANIFOLD_SOLID_BREP ( 'Zaoblit1', #251 ) ;
#241 = CARTESIAN_POINT ( 'NONE',  ( -3.000000000000000444, 0.000000000000000000, 0.000000000000000000 ) ) ;
#242 = CC_DESIGN_APPROVAL ( #220, ( #253 ) ) ;
#243 = DIRECTION ( 'NONE',  ( 0.000000000000000000, 0.000000000000000000, 1.000000000000000000 ) ) ;
#244 = DIRECTION ( 'NONE',  ( -1.000000000000000000, 0.000000000000000000, 0.000000000000000000 ) ) ;
#245 = PLANE ( 'NONE',  #5 ) ;
#246 =( NAMED_UNIT ( * ) PLANE_ANGLE_UNIT ( ) SI_UNIT ( $, .RADIAN. ) );
#247 = AXIS2_PLACEMENT_3D ( 'NONE', #30, #138, #64 ) ;
#248 = APPROVAL_DATE_TIME ( #196, #220 ) ;
#249 = EDGE_CURVE ( 'NONE', #23, #13, #49, .T. ) ;
#250 = APPROVAL_ROLE ( '' ) ;
#251 = CLOSED_SHELL ( 'NONE', ( #298, #188, #59, #125, #264, #168, #128, #81, #110 ) ) ;
#252 = DIRECTION ( 'NONE',  ( 1.000000000000000000, 0.000000000000000000, 0.000000000000000000 ) ) ;
#253 = SECURITY_CLASSIFICATION ( '', '', #152 ) ;
#254 = CARTESIAN_POINT ( 'NONE',  ( 0.000000000000000000, 0.000000000000000000, 3.000000000000000000 ) ) ;
#255 = DIRECTION ( 'NONE',  ( -0.000000000000000000, -0.000000000000000000, -1.000000000000000000 ) ) ;
#256 = TOROIDAL_SURFACE ( 'NONE', #114, 1.800000000000000266, 0.2000000000000000111 ) ;
#257 = CARTESIAN_POINT ( 'NONE',  ( 1.600000000000000089, 1.959434878635765230E-16, 203.0000000000000000 ) ) ;
#258 = ORIENTED_EDGE ( 'NONE', *, *, #10, .F. ) ;
#259 = EDGE_CURVE ( 'NONE', #72, #162, #68, .T. ) ;
#260 = CARTESIAN_POINT ( 'NONE',  ( -1.800000000000000266, 2.204364238465236069E-16, 3.000000000000004441 ) ) ;
#261 = ORIENTED_EDGE ( 'NONE', *, *, #193, .F. ) ;
#262 = DIRECTION ( 'NONE',  ( -0.000000000000000000, -0.000000000000000000, -1.000000000000000000 ) ) ;
#263 = CARTESIAN_POINT ( 'NONE',  ( 0.000000000000000000, 0.000000000000000000, 3.200000000000008171 ) ) ;
#264 = ADVANCED_FACE ( 'NONE', ( #3, #231 ), #27, .T. ) ;
#265 = FACE_OUTER_BOUND ( 'NONE', #198, .T. ) ;
#266 = DIRECTION ( 'NONE',  ( 1.000000000000000000, 0.000000000000000000, -0.000000000000000000 ) ) ;
#267 =( NAMED_UNIT ( * ) SI_UNIT ( $, .STERADIAN. ) SOLID_ANGLE_UNIT ( ) );
#268 = PERSON_AND_ORGANIZATION_ROLE ( 'classification_officer' ) ;
#269 = AXIS2_PLACEMENT_3D ( 'NONE', #164, #288, #42 ) ;
#270 = PERSON_AND_ORGANIZATION_ROLE ( 'creator' ) ;
#271 = DESIGN_CONTEXT ( 'detailed design', #180, 'design' ) ;
#272 = CIRCLE ( 'NONE', #15, 1.600000000000000089 ) ;
#273 = AXIS2_PLACEMENT_3D ( 'NONE', #41, #97, #1 ) ;
#274 = ORIENTED_EDGE ( 'NONE', *, *, #249, .T. ) ;
#275 = ORIENTED_EDGE ( 'NONE', *, *, #156, .T. ) ;
#276 = DIRECTION ( 'NONE',  ( 1.000000000000000000, 0.000000000000000000, 0.000000000000000000 ) ) ;
#277 = ORIENTED_EDGE ( 'NONE', *, *, #133, .T. ) ;
#278 = CARTESIAN_POINT ( 'NONE',  ( 0.000000000000000000, 0.000000000000000000, 3.000000000000000000 ) ) ;
#279 = FACE_OUTER_BOUND ( 'NONE', #163, .T. ) ;
#280 = DIRECTION ( 'NONE',  ( -0.000000000000000000, -0.000000000000000000, -1.000000000000000000 ) ) ;
#281 = ORIENTED_EDGE ( 'NONE', *, *, #140, .T. ) ;
#282 = ORIENTED_EDGE ( 'NONE', *, *, #259, .F. ) ;
#283 = CIRCLE ( 'NONE', #82, 0.1999999999999998723 ) ;
#284 = CARTESIAN_POINT ( 'NONE',  ( 1.800000000000000266, 0.000000000000000000, 3.200000000000008171 ) ) ;
#285 = FACE_OUTER_BOUND ( 'NONE', #38, .T. ) ;
#286 = EDGE_CURVE ( 'NONE', #227, #120, #4, .T. ) ;
#287 = VECTOR ( 'NONE', #203, 1000.000000000000000 ) ;
#288 = DIRECTION ( 'NONE',  ( 0.000000000000000000, 0.000000000000000000, 1.000000000000000000 ) ) ;
#289 = CC_DESIGN_DATE_AND_TIME_ASSIGNMENT ( #60, #132, ( #52 ) ) ;
#290 = APPROVAL_STATUS ( 'not_yet_approved' ) ;
#291 = CC_DESIGN_PERSON_AND_ORGANIZATION_ASSIGNMENT ( #101, #268, ( #253 ) ) ;
#292 = COORDINATED_UNIVERSAL_TIME_OFFSET ( 1, 0, .AHEAD. ) ;
#293 = SHAPE_DEFINITION_REPRESENTATION ( #104, #222 ) ;
#294 = ORIENTED_EDGE ( 'NONE', *, *, #106, .F. ) ;
#295 = PERSON_AND_ORGANIZATION ( #151, #211 ) ;
#296 = ORIENTED_EDGE ( 'NONE', *, *, #133, .F. ) ;
#297 = PRODUCT_DEFINITION_FORMATION_WITH_SPECIFIED_SOURCE ( 'LIBOVOLNÝ', '', #31, .NOT_KNOWN. ) ;
#298 = ADVANCED_FACE ( 'NONE', ( #158 ), #84, .F. ) ;
#299 = AXIS2_PLACEMENT_3D ( 'NONE', #145, #179, #67 ) ;
#300 = ORIENTED_EDGE ( 'NONE', *, *, #63, .T. ) ;
#301 = DIRECTION ( 'NONE',  ( 1.000000000000000000, 0.000000000000000000, -0.000000000000000000 ) ) ;
#302 = CARTESIAN_POINT ( 'NONE',  ( -1.600000000000000089, 0.000000000000000000, 203.0000000000000000 ) ) ;
#303 =( GEOMETRIC_REPRESENTATION_CONTEXT ( 3 ) GLOBAL_UNCERTAINTY_ASSIGNED_CONTEXT ( ( #9 ) ) GLOBAL_UNIT_ASSIGNED_CONTEXT ( ( #212, #246, #267 ) ) REPRESENTATION_CONTEXT ( 'NONE', 'WORKASPACE' ) );
#304 = ORIENTED_EDGE ( 'NONE', *, *, #106, .T. ) ;
#305 = APPROVAL ( #134, 'NEURÈENÝ' ) ;
#306 = EDGE_LOOP ( 'NONE', ( #296, #201, #144, #282 ) ) ;
#307 = VERTEX_POINT ( 'NONE', #257 ) ;
ENDSEC;
END-ISO-10303-21;
