ISO-10303-21;
HEADER;
FILE_DESCRIPTION (( 'STEP AP203' ),
    '1' );
FILE_NAME ('67eb.STEP',
    '2022-06-30T20:27:02',
    ( '' ),
    ( '' ),
    'SwSTEP 2.0',
    'SolidWorks 2019',
    '' );
FILE_SCHEMA (( 'CONFIG_CONTROL_DESIGN' ));
ENDSEC;

DATA;
#1 = APPROVAL_PERSON_ORGANIZATION ( #254, #51, #80 ) ;
#2 = CARTESIAN_POINT ( 'NONE',  ( 2.000000000000000000, 2.449293598294706414E-16, 2.000000000000000000 ) ) ;
#3 = ADVANCED_FACE ( 'NONE', ( #252 ), #77, .T. ) ;
#4 = CARTESIAN_POINT ( 'NONE',  ( 0.000000000000000000, 0.000000000000000000, 2.000000000000000000 ) ) ;
#5 = DIRECTION ( 'NONE',  ( 1.000000000000000000, 0.000000000000000000, -0.000000000000000000 ) ) ;
#6 = CARTESIAN_POINT ( 'NONE',  ( 0.000000000000000000, 0.000000000000000000, 102.0000000000000142 ) ) ;
#7 = AXIS2_PLACEMENT_3D ( 'NONE', #186, #165, #226 ) ;
#8 = EDGE_CURVE ( 'NONE', #12, #40, #19, .T. ) ;
#9 = DIRECTION ( 'NONE',  ( 0.000000000000000000, 0.000000000000000000, 1.000000000000000000 ) ) ;
#10 = SECURITY_CLASSIFICATION ( '', '', #16 ) ;
#11 = CARTESIAN_POINT ( 'NONE',  ( 2.000000000000000000, 2.449293598294706414E-16, 0.000000000000000000 ) ) ;
#12 = VERTEX_POINT ( 'NONE', #134 ) ;
#13 = CARTESIAN_POINT ( 'NONE',  ( 0.000000000000000000, 0.000000000000000000, 2.000000000000000000 ) ) ;
#14 = ORIENTED_EDGE ( 'NONE', *, *, #191, .F. ) ;
#15 = COORDINATED_UNIVERSAL_TIME_OFFSET ( 1, 0, .AHEAD. ) ;
#16 = SECURITY_CLASSIFICATION_LEVEL ( 'unclassified' ) ;
#17 = APPROVAL_DATE_TIME ( #237, #51 ) ;
#18 = ORIENTED_EDGE ( 'NONE', *, *, #31, .F. ) ;
#19 = CIRCLE ( 'NONE', #148, 1.000000000000000000 ) ;
#20 = APPROVAL_PERSON_ORGANIZATION ( #212, #183, #92 ) ;
#21 = ORIENTED_EDGE ( 'NONE', *, *, #190, .T. ) ;
#22 = ORIENTED_EDGE ( 'NONE', *, *, #55, .F. ) ;
#23 = LINE ( 'NONE', #2, #33 ) ;
#24 = MANIFOLD_SOLID_BREP ( 'Pøidat vysunutím3', #129 ) ;
#25 = CC_DESIGN_PERSON_AND_ORGANIZATION_ASSIGNMENT ( #249, #215, ( #85 ) ) ;
#26 = DIRECTION ( 'NONE',  ( 0.000000000000000000, 0.000000000000000000, 1.000000000000000000 ) ) ;
#27 = DIRECTION ( 'NONE',  ( 1.000000000000000000, 0.000000000000000000, 0.000000000000000000 ) ) ;
#28 = CARTESIAN_POINT ( 'NONE',  ( 1.000000000000000000, 1.224646799147353207E-16, 102.0000000000000142 ) ) ;
#29 = DIRECTION ( 'NONE',  ( -0.000000000000000000, -0.000000000000000000, -1.000000000000000000 ) ) ;
#30 = APPROVAL_ROLE ( '' ) ;
#31 = EDGE_CURVE ( 'NONE', #132, #179, #101, .T. ) ;
#32 = DIRECTION ( 'NONE',  ( 0.000000000000000000, 0.000000000000000000, 1.000000000000000000 ) ) ;
#33 = VECTOR ( 'NONE', #245, 1000.000000000000000 ) ;
#34 = ORIENTED_EDGE ( 'NONE', *, *, #222, .T. ) ;
#35 = PERSON_AND_ORGANIZATION_ROLE ( 'creator' ) ;
#36 = EDGE_LOOP ( 'NONE', ( #34, #200 ) ) ;
#37 = PERSON_AND_ORGANIZATION ( #220, #157 ) ;
#38 = AXIS2_PLACEMENT_3D ( 'NONE', #87, #44, #122 ) ;
#39 = APPLICATION_CONTEXT ( 'configuration controlled 3d designs of mechanical parts and assemblies' ) ;
#40 = VERTEX_POINT ( 'NONE', #99 ) ;
#41 = AXIS2_PLACEMENT_3D ( 'NONE', #6, #64, #224 ) ;
#42 = PLANE ( 'NONE',  #242 ) ;
#43 = CC_DESIGN_DATE_AND_TIME_ASSIGNMENT ( #230, #149, ( #96 ) ) ;
#44 = DIRECTION ( 'NONE',  ( 0.000000000000000000, 0.000000000000000000, 1.000000000000000000 ) ) ;
#45 = CIRCLE ( 'NONE', #38, 1.000000000000000000 ) ;
#46 = LOCAL_TIME ( 22, 27, 2.000000000000000000, #15 ) ;
#47 = CARTESIAN_POINT ( 'NONE',  ( -2.000000000000000000, 0.000000000000000000, 2.000000000000000000 ) ) ;
#48 = DIRECTION ( 'NONE',  ( 1.000000000000000000, 0.000000000000000000, 0.000000000000000000 ) ) ;
#49 = DIRECTION ( 'NONE',  ( 0.000000000000000000, 0.000000000000000000, 1.000000000000000000 ) ) ;
#50 = PERSON_AND_ORGANIZATION ( #220, #157 ) ;
#51 = APPROVAL ( #158, 'NEURÈENÝ' ) ;
#52 = EDGE_LOOP ( 'NONE', ( #81, #255, #128, #18 ) ) ;
#53 = PERSON_AND_ORGANIZATION ( #220, #157 ) ;
#54 = EDGE_LOOP ( 'NONE', ( #135, #111 ) ) ;
#55 = EDGE_CURVE ( 'NONE', #182, #234, #45, .T. ) ;
#56 = DATE_AND_TIME ( #174, #188 ) ;
#57 = CALENDAR_DATE ( 2022, 30, 6 ) ;
#58 = APPROVAL_PERSON_ORGANIZATION ( #50, #98, #30 ) ;
#59 = SHAPE_DEFINITION_REPRESENTATION ( #166, #89 ) ;
#60 = CARTESIAN_POINT ( 'NONE',  ( 0.000000000000000000, 0.000000000000000000, 2.000000000000000000 ) ) ;
#61 = ORIENTED_EDGE ( 'NONE', *, *, #116, .F. ) ;
#62 = ORIENTED_EDGE ( 'NONE', *, *, #139, .T. ) ;
#63 = AXIS2_PLACEMENT_3D ( 'NONE', #86, #168, #102 ) ;
#64 = DIRECTION ( 'NONE',  ( -0.000000000000000000, -0.000000000000000000, -1.000000000000000000 ) ) ;
#65 = CARTESIAN_POINT ( 'NONE',  ( 0.000000000000000000, 0.000000000000000000, 2.000000000000000000 ) ) ;
#66 = CARTESIAN_POINT ( 'NONE',  ( 0.000000000000000000, 0.000000000000000000, 2.000000000000000000 ) ) ;
#67 = CC_DESIGN_APPROVAL ( #51, ( #10 ) ) ;
#68 = CARTESIAN_POINT ( 'NONE',  ( 1.000000000000000000, 1.224646799147353207E-16, 102.0000000000000142 ) ) ;
#69 = CYLINDRICAL_SURFACE ( 'NONE', #63, 1.000000000000000000 ) ;
#70 = APPLICATION_PROTOCOL_DEFINITION ( 'international standard', 'config_control_design', 1994, #236 ) ;
#71 = CALENDAR_DATE ( 2022, 30, 6 ) ;
#72 = APPROVAL_STATUS ( 'not_yet_approved' ) ;
#73 = ORIENTED_EDGE ( 'NONE', *, *, #145, .F. ) ;
#74 =( NAMED_UNIT ( * ) PLANE_ANGLE_UNIT ( ) SI_UNIT ( $, .RADIAN. ) );
#75 = UNCERTAINTY_MEASURE_WITH_UNIT (LENGTH_MEASURE( 1.000000000000000082E-05 ), #110, 'distance_accuracy_value', 'NONE');
#76 = PERSON_AND_ORGANIZATION ( #220, #157 ) ;
#77 = CYLINDRICAL_SURFACE ( 'NONE', #235, 2.000000000000000000 ) ;
#78 = LOCAL_TIME ( 22, 27, 2.000000000000000000, #216 ) ;
#79 = DIRECTION ( 'NONE',  ( 1.000000000000000000, 0.000000000000000000, 0.000000000000000000 ) ) ;
#80 = APPROVAL_ROLE ( '' ) ;
#81 = ORIENTED_EDGE ( 'NONE', *, *, #195, .F. ) ;
#82 = EDGE_LOOP ( 'NONE', ( #97, #199, #178, #196 ) ) ;
#83 =( GEOMETRIC_REPRESENTATION_CONTEXT ( 3 ) GLOBAL_UNCERTAINTY_ASSIGNED_CONTEXT ( ( #75 ) ) GLOBAL_UNIT_ASSIGNED_CONTEXT ( ( #110, #74, #114 ) ) REPRESENTATION_CONTEXT ( 'NONE', 'WORKASPACE' ) );
#84 = DIRECTION ( 'NONE',  ( 1.000000000000000000, 0.000000000000000000, -0.000000000000000000 ) ) ;
#85 = PRODUCT ( '67eb', '67eb', '', ( #127 ) ) ;
#86 = CARTESIAN_POINT ( 'NONE',  ( 0.000000000000000000, 0.000000000000000000, 102.0000000000000142 ) ) ;
#87 = CARTESIAN_POINT ( 'NONE',  ( 0.000000000000000000, 0.000000000000000000, 102.0000000000000142 ) ) ;
#88 = VECTOR ( 'NONE', #29, 1000.000000000000000 ) ;
#89 = ADVANCED_BREP_SHAPE_REPRESENTATION ( '67eb', ( #24, #161 ), #83 ) ;
#90 = CARTESIAN_POINT ( 'NONE',  ( -1.000000000000000000, 0.000000000000000000, 102.0000000000000142 ) ) ;
#91 = FACE_OUTER_BOUND ( 'NONE', #52, .T. ) ;
#92 = APPROVAL_ROLE ( '' ) ;
#93 = ORIENTED_EDGE ( 'NONE', *, *, #195, .T. ) ;
#94 = ORIENTED_EDGE ( 'NONE', *, *, #239, .T. ) ;
#95 = ADVANCED_FACE ( 'NONE', ( #246 ), #69, .T. ) ;
#96 = PRODUCT_DEFINITION ( 'NEZNÁMÝ', '', #115, #238 ) ;
#97 = ORIENTED_EDGE ( 'NONE', *, *, #190, .F. ) ;
#98 = APPROVAL ( #211, 'NEURÈENÝ' ) ;
#99 = CARTESIAN_POINT ( 'NONE',  ( 1.000000000000000000, 1.224646799147353207E-16, 2.000000000000000000 ) ) ;
#100 = AXIS2_PLACEMENT_3D ( 'NONE', #184, #26, #84 ) ;
#101 = LINE ( 'NONE', #164, #88 ) ;
#102 = DIRECTION ( 'NONE',  ( -1.000000000000000000, 0.000000000000000000, 0.000000000000000000 ) ) ;
#103 = DIRECTION ( 'NONE',  ( -0.000000000000000000, -0.000000000000000000, -1.000000000000000000 ) ) ;
#104 = LOCAL_TIME ( 22, 27, 2.000000000000000000, #108 ) ;
#105 = PLANE ( 'NONE',  #143 ) ;
#106 = ADVANCED_FACE ( 'NONE', ( #119 ), #248, .F. ) ;
#107 = APPLICATION_PROTOCOL_DEFINITION ( 'international standard', 'config_control_design', 1994, #39 ) ;
#108 = COORDINATED_UNIVERSAL_TIME_OFFSET ( 1, 0, .AHEAD. ) ;
#109 = CIRCLE ( 'NONE', #152, 2.000000000000000000 ) ;
#110 =( LENGTH_UNIT ( ) NAMED_UNIT ( * ) SI_UNIT ( .MILLI., .METRE. ) );
#111 = ORIENTED_EDGE ( 'NONE', *, *, #155, .F. ) ;
#112 = PERSON_AND_ORGANIZATION ( #220, #157 ) ;
#113 = EDGE_LOOP ( 'NONE', ( #22, #21, #94, #61 ) ) ;
#114 =( NAMED_UNIT ( * ) SI_UNIT ( $, .STERADIAN. ) SOLID_ANGLE_UNIT ( ) );
#115 = PRODUCT_DEFINITION_FORMATION_WITH_SPECIFIED_SOURCE ( 'LIBOVOLNÝ', '', #85, .NOT_KNOWN. ) ;
#116 = EDGE_CURVE ( 'NONE', #234, #12, #138, .T. ) ;
#117 = CC_DESIGN_APPROVAL ( #183, ( #96 ) ) ;
#118 = PERSON_AND_ORGANIZATION_ROLE ( 'classification_officer' ) ;
#119 = FACE_OUTER_BOUND ( 'NONE', #54, .T. ) ;
#120 = CARTESIAN_POINT ( 'NONE',  ( 0.000000000000000000, 0.000000000000000000, 102.0000000000000142 ) ) ;
#121 = CIRCLE ( 'NONE', #136, 2.000000000000000000 ) ;
#122 = DIRECTION ( 'NONE',  ( 1.000000000000000000, 0.000000000000000000, 0.000000000000000000 ) ) ;
#123 = CARTESIAN_POINT ( 'NONE',  ( 2.000000000000000000, 2.449293598294706414E-16, 2.000000000000000000 ) ) ;
#124 = CC_DESIGN_PERSON_AND_ORGANIZATION_ASSIGNMENT ( #112, #194, ( #115 ) ) ;
#125 = DIRECTION ( 'NONE',  ( 0.000000000000000000, 0.000000000000000000, 1.000000000000000000 ) ) ;
#126 = CARTESIAN_POINT ( 'NONE',  ( 0.000000000000000000, 0.000000000000000000, 0.000000000000000000 ) ) ;
#127 = MECHANICAL_CONTEXT ( 'NONE', #39, 'mechanical' ) ;
#128 = ORIENTED_EDGE ( 'NONE', *, *, #155, .T. ) ;
#129 = CLOSED_SHELL ( 'NONE', ( #210, #140, #3, #172, #106, #95, #162 ) ) ;
#130 = DIRECTION ( 'NONE',  ( 1.000000000000000000, 0.000000000000000000, 0.000000000000000000 ) ) ;
#131 = CIRCLE ( 'NONE', #218, 2.000000000000000000 ) ;
#132 = VERTEX_POINT ( 'NONE', #47 ) ;
#133 = DIRECTION ( 'NONE',  ( -0.000000000000000000, -0.000000000000000000, -1.000000000000000000 ) ) ;
#134 = CARTESIAN_POINT ( 'NONE',  ( -1.000000000000000000, 0.000000000000000000, 2.000000000000000000 ) ) ;
#135 = ORIENTED_EDGE ( 'NONE', *, *, #139, .F. ) ;
#136 = AXIS2_PLACEMENT_3D ( 'NONE', #66, #9, #187 ) ;
#137 = LINE ( 'NONE', #28, #177 ) ;
#138 = LINE ( 'NONE', #90, #171 ) ;
#139 = EDGE_CURVE ( 'NONE', #179, #223, #217, .T. ) ;
#140 = ADVANCED_FACE ( 'NONE', ( #91 ), #206, .T. ) ;
#141 = CYLINDRICAL_SURFACE ( 'NONE', #41, 1.000000000000000000 ) ;
#142 = AXIS2_PLACEMENT_3D ( 'NONE', #65, #207, #205 ) ;
#143 = AXIS2_PLACEMENT_3D ( 'NONE', #203, #144, #189 ) ;
#144 = DIRECTION ( 'NONE',  ( 0.000000000000000000, 0.000000000000000000, 1.000000000000000000 ) ) ;
#145 = EDGE_CURVE ( 'NONE', #159, #223, #23, .T. ) ;
#146 = CARTESIAN_POINT ( 'NONE',  ( 0.000000000000000000, 0.000000000000000000, 0.000000000000000000 ) ) ;
#147 = COORDINATED_UNIVERSAL_TIME_OFFSET ( 1, 0, .AHEAD. ) ;
#148 = AXIS2_PLACEMENT_3D ( 'NONE', #253, #198, #79 ) ;
#149 = DATE_TIME_ROLE ( 'creation_date' ) ;
#150 = DATE_AND_TIME ( #71, #104 ) ;
#151 = CALENDAR_DATE ( 2022, 30, 6 ) ;
#152 = AXIS2_PLACEMENT_3D ( 'NONE', #146, #49, #27 ) ;
#153 = CARTESIAN_POINT ( 'NONE',  ( -1.000000000000000000, 0.000000000000000000, 102.0000000000000142 ) ) ;
#154 = AXIS2_PLACEMENT_3D ( 'NONE', #13, #173, #192 ) ;
#155 = EDGE_CURVE ( 'NONE', #223, #179, #109, .T. ) ;
#156 = CALENDAR_DATE ( 2022, 30, 6 ) ;
#157 = ORGANIZATION ( 'NEURÈENÝ', 'NEURÈENÝ', '' ) ;
#158 = APPROVAL_STATUS ( 'not_yet_approved' ) ;
#159 = VERTEX_POINT ( 'NONE', #123 ) ;
#160 = ORIENTED_EDGE ( 'NONE', *, *, #191, .T. ) ;
#161 = AXIS2_PLACEMENT_3D ( 'NONE', #126, #169, #209 ) ;
#162 = ADVANCED_FACE ( 'NONE', ( #225 ), #42, .T. ) ;
#163 = PRODUCT_RELATED_PRODUCT_CATEGORY ( 'detail', '', ( #85 ) ) ;
#164 = CARTESIAN_POINT ( 'NONE',  ( -2.000000000000000000, 0.000000000000000000, 2.000000000000000000 ) ) ;
#165 = DIRECTION ( 'NONE',  ( 0.000000000000000000, 0.000000000000000000, 1.000000000000000000 ) ) ;
#166 = PRODUCT_DEFINITION_SHAPE ( 'NONE', 'NONE',  #96 ) ;
#167 = FACE_BOUND ( 'NONE', #240, .T. ) ;
#168 = DIRECTION ( 'NONE',  ( -0.000000000000000000, -0.000000000000000000, -1.000000000000000000 ) ) ;
#169 = DIRECTION ( 'NONE',  ( 0.000000000000000000, 0.000000000000000000, 1.000000000000000000 ) ) ;
#170 = PERSON_AND_ORGANIZATION_ROLE ( 'creator' ) ;
#171 = VECTOR ( 'NONE', #229, 1000.000000000000000 ) ;
#172 = ADVANCED_FACE ( 'NONE', ( #167, #247 ), #105, .T. ) ;
#173 = DIRECTION ( 'NONE',  ( 0.000000000000000000, 0.000000000000000000, 1.000000000000000000 ) ) ;
#174 = CALENDAR_DATE ( 2022, 30, 6 ) ;
#175 = EDGE_LOOP ( 'NONE', ( #73, #14, #193, #62 ) ) ;
#176 = CC_DESIGN_PERSON_AND_ORGANIZATION_ASSIGNMENT ( #53, #35, ( #115 ) ) ;
#177 = VECTOR ( 'NONE', #103, 1000.000000000000000 ) ;
#178 = ORIENTED_EDGE ( 'NONE', *, *, #116, .T. ) ;
#179 = VERTEX_POINT ( 'NONE', #185 ) ;
#180 = CIRCLE ( 'NONE', #154, 1.000000000000000000 ) ;
#181 = DATE_TIME_ROLE ( 'classification_date' ) ;
#182 = VERTEX_POINT ( 'NONE', #68 ) ;
#183 = APPROVAL ( #72, 'NEURÈENÝ' ) ;
#184 = CARTESIAN_POINT ( 'NONE',  ( 0.000000000000000000, 0.000000000000000000, 0.000000000000000000 ) ) ;
#185 = CARTESIAN_POINT ( 'NONE',  ( -2.000000000000000000, 0.000000000000000000, 0.000000000000000000 ) ) ;
#186 = CARTESIAN_POINT ( 'NONE',  ( 0.000000000000000000, 0.000000000000000000, 0.000000000000000000 ) ) ;
#187 = DIRECTION ( 'NONE',  ( 1.000000000000000000, 0.000000000000000000, 0.000000000000000000 ) ) ;
#188 = LOCAL_TIME ( 22, 27, 2.000000000000000000, #232 ) ;
#189 = DIRECTION ( 'NONE',  ( 1.000000000000000000, 0.000000000000000000, -0.000000000000000000 ) ) ;
#190 = EDGE_CURVE ( 'NONE', #182, #40, #137, .T. ) ;
#191 = EDGE_CURVE ( 'NONE', #132, #159, #131, .T. ) ;
#192 = DIRECTION ( 'NONE',  ( 1.000000000000000000, 0.000000000000000000, 0.000000000000000000 ) ) ;
#193 = ORIENTED_EDGE ( 'NONE', *, *, #31, .T. ) ;
#194 = PERSON_AND_ORGANIZATION_ROLE ( 'design_supplier' ) ;
#195 = EDGE_CURVE ( 'NONE', #159, #132, #121, .T. ) ;
#196 = ORIENTED_EDGE ( 'NONE', *, *, #8, .T. ) ;
#197 = DATE_AND_TIME ( #57, #46 ) ;
#198 = DIRECTION ( 'NONE',  ( 0.000000000000000000, 0.000000000000000000, 1.000000000000000000 ) ) ;
#199 = ORIENTED_EDGE ( 'NONE', *, *, #222, .F. ) ;
#200 = ORIENTED_EDGE ( 'NONE', *, *, #55, .T. ) ;
#201 = CC_DESIGN_PERSON_AND_ORGANIZATION_ASSIGNMENT ( #37, #170, ( #96 ) ) ;
#202 = CARTESIAN_POINT ( 'NONE',  ( 0.000000000000000000, 0.000000000000000000, 102.0000000000000142 ) ) ;
#203 = CARTESIAN_POINT ( 'NONE',  ( 0.000000000000000000, 0.000000000000000000, 2.000000000000000000 ) ) ;
#204 = AXIS2_PLACEMENT_3D ( 'NONE', #202, #32, #130 ) ;
#205 = DIRECTION ( 'NONE',  ( -1.000000000000000000, 0.000000000000000000, 0.000000000000000000 ) ) ;
#206 = CYLINDRICAL_SURFACE ( 'NONE', #142, 2.000000000000000000 ) ;
#207 = DIRECTION ( 'NONE',  ( -0.000000000000000000, -0.000000000000000000, -1.000000000000000000 ) ) ;
#208 = CIRCLE ( 'NONE', #204, 1.000000000000000000 ) ;
#209 = DIRECTION ( 'NONE',  ( 1.000000000000000000, 0.000000000000000000, 0.000000000000000000 ) ) ;
#210 = ADVANCED_FACE ( 'NONE', ( #244 ), #141, .T. ) ;
#211 = APPROVAL_STATUS ( 'not_yet_approved' ) ;
#212 = PERSON_AND_ORGANIZATION ( #220, #157 ) ;
#213 = ORIENTED_EDGE ( 'NONE', *, *, #239, .F. ) ;
#214 = ORIENTED_EDGE ( 'NONE', *, *, #8, .F. ) ;
#215 = PERSON_AND_ORGANIZATION_ROLE ( 'design_owner' ) ;
#216 = COORDINATED_UNIVERSAL_TIME_OFFSET ( 1, 0, .AHEAD. ) ;
#217 = CIRCLE ( 'NONE', #7, 2.000000000000000000 ) ;
#218 = AXIS2_PLACEMENT_3D ( 'NONE', #4, #228, #48 ) ;
#219 = CC_DESIGN_PERSON_AND_ORGANIZATION_ASSIGNMENT ( #76, #118, ( #10 ) ) ;
#220 = PERSON ( 'NEURÈENÝ', 'NEURÈENÝ', 'NEURÈENÝ', ('NEURÈENÝ'), ('NEURÈENÝ'), ('NEURÈENÝ') ) ;
#221 = DIRECTION ( 'NONE',  ( -1.000000000000000000, 0.000000000000000000, 0.000000000000000000 ) ) ;
#222 = EDGE_CURVE ( 'NONE', #234, #182, #208, .T. ) ;
#223 = VERTEX_POINT ( 'NONE', #11 ) ;
#224 = DIRECTION ( 'NONE',  ( -1.000000000000000000, 0.000000000000000000, 0.000000000000000000 ) ) ;
#225 = FACE_OUTER_BOUND ( 'NONE', #36, .T. ) ;
#226 = DIRECTION ( 'NONE',  ( 1.000000000000000000, 0.000000000000000000, 0.000000000000000000 ) ) ;
#227 = CC_DESIGN_SECURITY_CLASSIFICATION ( #10, ( #115 ) ) ;
#228 = DIRECTION ( 'NONE',  ( 0.000000000000000000, 0.000000000000000000, 1.000000000000000000 ) ) ;
#229 = DIRECTION ( 'NONE',  ( -0.000000000000000000, -0.000000000000000000, -1.000000000000000000 ) ) ;
#230 = DATE_AND_TIME ( #151, #231 ) ;
#231 = LOCAL_TIME ( 22, 27, 2.000000000000000000, #147 ) ;
#232 = COORDINATED_UNIVERSAL_TIME_OFFSET ( 1, 0, .AHEAD. ) ;
#233 = APPROVAL_DATE_TIME ( #150, #98 ) ;
#234 = VERTEX_POINT ( 'NONE', #153 ) ;
#235 = AXIS2_PLACEMENT_3D ( 'NONE', #60, #133, #221 ) ;
#236 = APPLICATION_CONTEXT ( 'configuration controlled 3d designs of mechanical parts and assemblies' ) ;
#237 = DATE_AND_TIME ( #156, #78 ) ;
#238 = DESIGN_CONTEXT ( 'detailed design', #236, 'design' ) ;
#239 = EDGE_CURVE ( 'NONE', #40, #12, #180, .T. ) ;
#240 = EDGE_LOOP ( 'NONE', ( #214, #213 ) ) ;
#241 = EDGE_LOOP ( 'NONE', ( #160, #93 ) ) ;
#242 = AXIS2_PLACEMENT_3D ( 'NONE', #120, #125, #5 ) ;
#243 = CC_DESIGN_APPROVAL ( #98, ( #115 ) ) ;
#244 = FACE_OUTER_BOUND ( 'NONE', #113, .T. ) ;
#245 = DIRECTION ( 'NONE',  ( -0.000000000000000000, -0.000000000000000000, -1.000000000000000000 ) ) ;
#246 = FACE_OUTER_BOUND ( 'NONE', #82, .T. ) ;
#247 = FACE_OUTER_BOUND ( 'NONE', #241, .T. ) ;
#248 = PLANE ( 'NONE',  #100 ) ;
#249 = PERSON_AND_ORGANIZATION ( #220, #157 ) ;
#250 = APPROVAL_DATE_TIME ( #56, #183 ) ;
#251 = CC_DESIGN_DATE_AND_TIME_ASSIGNMENT ( #197, #181, ( #10 ) ) ;
#252 = FACE_OUTER_BOUND ( 'NONE', #175, .T. ) ;
#253 = CARTESIAN_POINT ( 'NONE',  ( 0.000000000000000000, 0.000000000000000000, 2.000000000000000000 ) ) ;
#254 = PERSON_AND_ORGANIZATION ( #220, #157 ) ;
#255 = ORIENTED_EDGE ( 'NONE', *, *, #145, .T. ) ;
ENDSEC;
END-ISO-10303-21;
