ISO-10303-21;
HEADER;
FILE_DESCRIPTION (( 'STEP AP203' ),
    '1' );
FILE_NAME ('124e.STEP',
    '2023-02-12T12:22:18',
    ( '' ),
    ( '' ),
    'SwSTEP 2.0',
    'SolidWorks 2019',
    '' );
FILE_SCHEMA (( 'CONFIG_CONTROL_DESIGN' ));
ENDSEC;

DATA;
#1 = APPROVAL ( #142, 'NEURÈENÝ' ) ;
#2 = ADVANCED_BREP_SHAPE_REPRESENTATION ( '124e', ( #91, #23 ), #84 ) ;
#3 = ORIENTED_EDGE ( 'NONE', *, *, #15, .F. ) ;
#4 = PERSON_AND_ORGANIZATION ( #155, #76 ) ;
#5 = LOCAL_TIME ( 13, 22, 18.00000000000000000, #12 ) ;
#6 = DIRECTION ( 'NONE',  ( 0.000000000000000000, 0.000000000000000000, 1.000000000000000000 ) ) ;
#7 = PERSON_AND_ORGANIZATION_ROLE ( 'design_supplier' ) ;
#8 = CALENDAR_DATE ( 2023, 12, 2 ) ;
#9 = PERSON_AND_ORGANIZATION ( #155, #76 ) ;
#10 = CIRCLE ( 'NONE', #46, 1.100000000000000089 ) ;
#11 = AXIS2_PLACEMENT_3D ( 'NONE', #20, #22, #210 ) ;
#12 = COORDINATED_UNIVERSAL_TIME_OFFSET ( 1, 0, .AHEAD. ) ;
#13 = UNCERTAINTY_MEASURE_WITH_UNIT (LENGTH_MEASURE( 1.000000000000000082E-05 ), #144, 'distance_accuracy_value', 'NONE');
#14 = CARTESIAN_POINT ( 'NONE',  ( 0.000000000000000000, 0.000000000000000000, 2.000000000000000000 ) ) ;
#15 = EDGE_CURVE ( 'NONE', #168, #152, #122, .T. ) ;
#16 = AXIS2_PLACEMENT_3D ( 'NONE', #143, #49, #163 ) ;
#17 = CARTESIAN_POINT ( 'NONE',  ( 0.000000000000000000, 0.000000000000000000, 0.000000000000000000 ) ) ;
#18 = CC_DESIGN_APPROVAL ( #73, ( #103 ) ) ;
#19 = CARTESIAN_POINT ( 'NONE',  ( 1.100000000000000089, 1.347111479062088503E-16, 160.0000000000000000 ) ) ;
#20 = CARTESIAN_POINT ( 'NONE',  ( 0.000000000000000000, 0.000000000000000000, 2.000000000000000000 ) ) ;
#21 = EDGE_LOOP ( 'NONE', ( #82, #53, #104, #213 ) ) ;
#22 = DIRECTION ( 'NONE',  ( 0.000000000000000000, 0.000000000000000000, 1.000000000000000000 ) ) ;
#23 = AXIS2_PLACEMENT_3D ( 'NONE', #68, #124, #159 ) ;
#24 = CARTESIAN_POINT ( 'NONE',  ( 0.000000000000000000, 0.000000000000000000, 2.000000000000000000 ) ) ;
#25 = ADVANCED_FACE ( 'NONE', ( #220 ), #45, .T. ) ;
#26 = VERTEX_POINT ( 'NONE', #148 ) ;
#27 = ADVANCED_FACE ( 'NONE', ( #221 ), #72, .T. ) ;
#28 = CIRCLE ( 'NONE', #199, 2.000000000000000000 ) ;
#29 = MECHANICAL_CONTEXT ( 'NONE', #188, 'mechanical' ) ;
#30 = CALENDAR_DATE ( 2023, 12, 2 ) ;
#31 = EDGE_CURVE ( 'NONE', #255, #26, #37, .T. ) ;
#32 = PERSON_AND_ORGANIZATION ( #155, #76 ) ;
#33 = APPROVAL_DATE_TIME ( #55, #43 ) ;
#34 = COORDINATED_UNIVERSAL_TIME_OFFSET ( 1, 0, .AHEAD. ) ;
#35 = AXIS2_PLACEMENT_3D ( 'NONE', #156, #250, #191 ) ;
#36 = APPROVAL_PERSON_ORGANIZATION ( #32, #73, #198 ) ;
#37 = LINE ( 'NONE', #92, #149 ) ;
#38 = AXIS2_PLACEMENT_3D ( 'NONE', #154, #6, #169 ) ;
#39 = DIRECTION ( 'NONE',  ( 0.000000000000000000, 0.000000000000000000, 1.000000000000000000 ) ) ;
#40 = DIRECTION ( 'NONE',  ( 0.000000000000000000, 0.000000000000000000, 1.000000000000000000 ) ) ;
#41 = CARTESIAN_POINT ( 'NONE',  ( 0.000000000000000000, 0.000000000000000000, 2.000000000000000000 ) ) ;
#42 = FACE_OUTER_BOUND ( 'NONE', #212, .T. ) ;
#43 = APPROVAL ( #87, 'NEURÈENÝ' ) ;
#44 = CARTESIAN_POINT ( 'NONE',  ( 0.000000000000000000, 0.000000000000000000, 0.000000000000000000 ) ) ;
#45 = CYLINDRICAL_SURFACE ( 'NONE', #254, 2.000000000000000000 ) ;
#46 = AXIS2_PLACEMENT_3D ( 'NONE', #74, #40, #172 ) ;
#47 = CIRCLE ( 'NONE', #177, 1.100000000000000089 ) ;
#48 = ORIENTED_EDGE ( 'NONE', *, *, #178, .T. ) ;
#49 = DIRECTION ( 'NONE',  ( 0.000000000000000000, 0.000000000000000000, 1.000000000000000000 ) ) ;
#50 = VERTEX_POINT ( 'NONE', #136 ) ;
#51 = CALENDAR_DATE ( 2023, 12, 2 ) ;
#52 = ORIENTED_EDGE ( 'NONE', *, *, #112, .T. ) ;
#53 = ORIENTED_EDGE ( 'NONE', *, *, #229, .F. ) ;
#54 = APPLICATION_PROTOCOL_DEFINITION ( 'international standard', 'config_control_design', 1994, #188 ) ;
#55 = DATE_AND_TIME ( #197, #65 ) ;
#56 = CIRCLE ( 'NONE', #107, 2.000000000000000000 ) ;
#57 = DATE_TIME_ROLE ( 'classification_date' ) ;
#58 = ADVANCED_FACE ( 'NONE', ( #102 ), #79, .F. ) ;
#59 = DIRECTION ( 'NONE',  ( 0.000000000000000000, 0.000000000000000000, 1.000000000000000000 ) ) ;
#60 = DIRECTION ( 'NONE',  ( -1.000000000000000000, 0.000000000000000000, 0.000000000000000000 ) ) ;
#61 = DIRECTION ( 'NONE',  ( -0.000000000000000000, -0.000000000000000000, -1.000000000000000000 ) ) ;
#62 = FACE_BOUND ( 'NONE', #138, .T. ) ;
#63 = CARTESIAN_POINT ( 'NONE',  ( -1.100000000000000089, 0.000000000000000000, 160.0000000000000000 ) ) ;
#64 = EDGE_CURVE ( 'NONE', #192, #255, #175, .T. ) ;
#65 = LOCAL_TIME ( 13, 22, 18.00000000000000000, #162 ) ;
#66 = APPROVAL_ROLE ( '' ) ;
#67 = COORDINATED_UNIVERSAL_TIME_OFFSET ( 1, 0, .AHEAD. ) ;
#68 = CARTESIAN_POINT ( 'NONE',  ( 0.000000000000000000, 0.000000000000000000, 0.000000000000000000 ) ) ;
#69 = AXIS2_PLACEMENT_3D ( 'NONE', #41, #39, #228 ) ;
#70 = ADVANCED_FACE ( 'NONE', ( #205 ), #190, .T. ) ;
#71 = EDGE_LOOP ( 'NONE', ( #235, #119, #85, #217 ) ) ;
#72 = CYLINDRICAL_SURFACE ( 'NONE', #214, 2.000000000000000000 ) ;
#73 = APPROVAL ( #184, 'NEURÈENÝ' ) ;
#74 = CARTESIAN_POINT ( 'NONE',  ( 0.000000000000000000, 0.000000000000000000, 160.0000000000000000 ) ) ;
#75 = DIRECTION ( 'NONE',  ( 0.000000000000000000, 0.000000000000000000, 1.000000000000000000 ) ) ;
#76 = ORGANIZATION ( 'NEURÈENÝ', 'NEURÈENÝ', '' ) ;
#77 = CARTESIAN_POINT ( 'NONE',  ( 0.000000000000000000, 0.000000000000000000, 160.0000000000000000 ) ) ;
#78 = EDGE_LOOP ( 'NONE', ( #202, #230 ) ) ;
#79 = PLANE ( 'NONE',  #38 ) ;
#80 = DIRECTION ( 'NONE',  ( -0.000000000000000000, -0.000000000000000000, -1.000000000000000000 ) ) ;
#81 = CARTESIAN_POINT ( 'NONE',  ( 0.000000000000000000, 0.000000000000000000, 160.0000000000000000 ) ) ;
#82 = ORIENTED_EDGE ( 'NONE', *, *, #135, .F. ) ;
#83 = PRODUCT ( '124e', '124e', '', ( #29 ) ) ;
#84 =( GEOMETRIC_REPRESENTATION_CONTEXT ( 3 ) GLOBAL_UNCERTAINTY_ASSIGNED_CONTEXT ( ( #13 ) ) GLOBAL_UNIT_ASSIGNED_CONTEXT ( ( #144, #240, #128 ) ) REPRESENTATION_CONTEXT ( 'NONE', 'WORKASPACE' ) );
#85 = ORIENTED_EDGE ( 'NONE', *, *, #222, .T. ) ;
#86 = ORIENTED_EDGE ( 'NONE', *, *, #160, .F. ) ;
#87 = APPROVAL_STATUS ( 'not_yet_approved' ) ;
#88 = SECURITY_CLASSIFICATION_LEVEL ( 'unclassified' ) ;
#89 = APPLICATION_CONTEXT ( 'configuration controlled 3d designs of mechanical parts and assemblies' ) ;
#90 = ADVANCED_FACE ( 'NONE', ( #42 ), #113, .T. ) ;
#91 = MANIFOLD_SOLID_BREP ( 'Pøidat vysunutím3', #196 ) ;
#92 = CARTESIAN_POINT ( 'NONE',  ( -2.000000000000000000, 0.000000000000000000, 2.000000000000000000 ) ) ;
#93 = APPROVAL_PERSON_ORGANIZATION ( #9, #1, #66 ) ;
#94 = PLANE ( 'NONE',  #11 ) ;
#95 = PRODUCT_DEFINITION ( 'NEZNÁMÝ', '', #118, #150 ) ;
#96 = DIRECTION ( 'NONE',  ( 0.000000000000000000, 0.000000000000000000, 1.000000000000000000 ) ) ;
#97 = DIRECTION ( 'NONE',  ( -1.000000000000000000, 0.000000000000000000, 0.000000000000000000 ) ) ;
#98 = ORIENTED_EDGE ( 'NONE', *, *, #64, .F. ) ;
#99 = CARTESIAN_POINT ( 'NONE',  ( 1.100000000000000089, 1.347111479062088503E-16, 160.0000000000000000 ) ) ;
#100 = EDGE_CURVE ( 'NONE', #233, #208, #10, .T. ) ;
#101 = DIRECTION ( 'NONE',  ( -0.000000000000000000, -0.000000000000000000, -1.000000000000000000 ) ) ;
#102 = FACE_OUTER_BOUND ( 'NONE', #123, .T. ) ;
#103 = SECURITY_CLASSIFICATION ( '', '', #88 ) ;
#104 = ORIENTED_EDGE ( 'NONE', *, *, #31, .T. ) ;
#105 = PERSON_AND_ORGANIZATION_ROLE ( 'creator' ) ;
#106 = SHAPE_DEFINITION_REPRESENTATION ( #224, #2 ) ;
#107 = AXIS2_PLACEMENT_3D ( 'NONE', #133, #158, #207 ) ;
#108 = PERSON_AND_ORGANIZATION ( #155, #76 ) ;
#109 = PERSON_AND_ORGANIZATION_ROLE ( 'classification_officer' ) ;
#110 = CALENDAR_DATE ( 2023, 12, 2 ) ;
#111 = AXIS2_PLACEMENT_3D ( 'NONE', #77, #117, #60 ) ;
#112 = EDGE_CURVE ( 'NONE', #152, #168, #249, .T. ) ;
#113 = CYLINDRICAL_SURFACE ( 'NONE', #171, 1.100000000000000089 ) ;
#114 = LOCAL_TIME ( 13, 22, 18.00000000000000000, #186 ) ;
#115 = DIRECTION ( 'NONE',  ( 0.000000000000000000, 0.000000000000000000, 1.000000000000000000 ) ) ;
#116 = CARTESIAN_POINT ( 'NONE',  ( 0.000000000000000000, 0.000000000000000000, 160.0000000000000000 ) ) ;
#117 = DIRECTION ( 'NONE',  ( -0.000000000000000000, -0.000000000000000000, -1.000000000000000000 ) ) ;
#118 = PRODUCT_DEFINITION_FORMATION_WITH_SPECIFIED_SOURCE ( 'LIBOVOLNÝ', '', #83, .NOT_KNOWN. ) ;
#119 = ORIENTED_EDGE ( 'NONE', *, *, #100, .F. ) ;
#120 = CIRCLE ( 'NONE', #129, 2.000000000000000000 ) ;
#121 = PERSON_AND_ORGANIZATION ( #155, #76 ) ;
#122 = CIRCLE ( 'NONE', #16, 1.100000000000000089 ) ;
#123 = EDGE_LOOP ( 'NONE', ( #176, #86 ) ) ;
#124 = DIRECTION ( 'NONE',  ( 0.000000000000000000, 0.000000000000000000, 1.000000000000000000 ) ) ;
#125 = VECTOR ( 'NONE', #61, 1000.000000000000000 ) ;
#126 = PERSON_AND_ORGANIZATION ( #155, #76 ) ;
#127 = EDGE_LOOP ( 'NONE', ( #139, #215 ) ) ;
#128 =( NAMED_UNIT ( * ) SI_UNIT ( $, .STERADIAN. ) SOLID_ANGLE_UNIT ( ) );
#129 = AXIS2_PLACEMENT_3D ( 'NONE', #17, #75, #147 ) ;
#130 = PLANE ( 'NONE',  #234 ) ;
#131 = LINE ( 'NONE', #19, #153 ) ;
#132 = APPROVAL_PERSON_ORGANIZATION ( #4, #43, #242 ) ;
#133 = CARTESIAN_POINT ( 'NONE',  ( 0.000000000000000000, 0.000000000000000000, 2.000000000000000000 ) ) ;
#134 = CARTESIAN_POINT ( 'NONE',  ( 1.100000000000000089, 1.347111479062088503E-16, 2.000000000000000000 ) ) ;
#135 = EDGE_CURVE ( 'NONE', #192, #50, #137, .T. ) ;
#136 = CARTESIAN_POINT ( 'NONE',  ( 2.000000000000000000, 2.449293598294706414E-16, 0.000000000000000000 ) ) ;
#137 = LINE ( 'NONE', #227, #232 ) ;
#138 = EDGE_LOOP ( 'NONE', ( #3, #157 ) ) ;
#139 = ORIENTED_EDGE ( 'NONE', *, *, #100, .T. ) ;
#140 = LOCAL_TIME ( 13, 22, 18.00000000000000000, #67 ) ;
#141 = ADVANCED_FACE ( 'NONE', ( #209 ), #130, .T. ) ;
#142 = APPROVAL_STATUS ( 'not_yet_approved' ) ;
#143 = CARTESIAN_POINT ( 'NONE',  ( 0.000000000000000000, 0.000000000000000000, 2.000000000000000000 ) ) ;
#144 =( LENGTH_UNIT ( ) NAMED_UNIT ( * ) SI_UNIT ( .MILLI., .METRE. ) );
#145 = DIRECTION ( 'NONE',  ( -0.000000000000000000, -0.000000000000000000, -1.000000000000000000 ) ) ;
#146 = ADVANCED_FACE ( 'NONE', ( #62, #170 ), #94, .T. ) ;
#147 = DIRECTION ( 'NONE',  ( 1.000000000000000000, 0.000000000000000000, 0.000000000000000000 ) ) ;
#148 = CARTESIAN_POINT ( 'NONE',  ( -2.000000000000000000, 0.000000000000000000, 0.000000000000000000 ) ) ;
#149 = VECTOR ( 'NONE', #80, 1000.000000000000000 ) ;
#150 = DESIGN_CONTEXT ( 'detailed design', #89, 'design' ) ;
#151 = DIRECTION ( 'NONE',  ( -0.000000000000000000, -0.000000000000000000, -1.000000000000000000 ) ) ;
#152 = VERTEX_POINT ( 'NONE', #134 ) ;
#153 = VECTOR ( 'NONE', #151, 1000.000000000000000 ) ;
#154 = CARTESIAN_POINT ( 'NONE',  ( 0.000000000000000000, 0.000000000000000000, 0.000000000000000000 ) ) ;
#155 = PERSON ( 'NEURÈENÝ', 'NEURÈENÝ', 'NEURÈENÝ', ('NEURÈENÝ'), ('NEURÈENÝ'), ('NEURÈENÝ') ) ;
#156 = CARTESIAN_POINT ( 'NONE',  ( 0.000000000000000000, 0.000000000000000000, 2.000000000000000000 ) ) ;
#157 = ORIENTED_EDGE ( 'NONE', *, *, #112, .F. ) ;
#158 = DIRECTION ( 'NONE',  ( 0.000000000000000000, 0.000000000000000000, 1.000000000000000000 ) ) ;
#159 = DIRECTION ( 'NONE',  ( 1.000000000000000000, 0.000000000000000000, 0.000000000000000000 ) ) ;
#160 = EDGE_CURVE ( 'NONE', #50, #26, #120, .T. ) ;
#161 = CC_DESIGN_APPROVAL ( #43, ( #118 ) ) ;
#162 = COORDINATED_UNIVERSAL_TIME_OFFSET ( 1, 0, .AHEAD. ) ;
#163 = DIRECTION ( 'NONE',  ( 1.000000000000000000, 0.000000000000000000, 0.000000000000000000 ) ) ;
#164 = CARTESIAN_POINT ( 'NONE',  ( -2.000000000000000000, 0.000000000000000000, 2.000000000000000000 ) ) ;
#165 = DATE_TIME_ROLE ( 'creation_date' ) ;
#166 = DATE_AND_TIME ( #110, #5 ) ;
#167 = CC_DESIGN_DATE_AND_TIME_ASSIGNMENT ( #183, #165, ( #95 ) ) ;
#168 = VERTEX_POINT ( 'NONE', #247 ) ;
#169 = DIRECTION ( 'NONE',  ( 1.000000000000000000, 0.000000000000000000, -0.000000000000000000 ) ) ;
#170 = FACE_OUTER_BOUND ( 'NONE', #78, .T. ) ;
#171 = AXIS2_PLACEMENT_3D ( 'NONE', #81, #225, #97 ) ;
#172 = DIRECTION ( 'NONE',  ( 1.000000000000000000, 0.000000000000000000, 0.000000000000000000 ) ) ;
#173 = LINE ( 'NONE', #252, #125 ) ;
#174 = CC_DESIGN_PERSON_AND_ORGANIZATION_ASSIGNMENT ( #126, #109, ( #103 ) ) ;
#175 = CIRCLE ( 'NONE', #69, 2.000000000000000000 ) ;
#176 = ORIENTED_EDGE ( 'NONE', *, *, #251, .F. ) ;
#177 = AXIS2_PLACEMENT_3D ( 'NONE', #116, #96, #193 ) ;
#178 = EDGE_CURVE ( 'NONE', #208, #152, #131, .T. ) ;
#179 = ORIENTED_EDGE ( 'NONE', *, *, #135, .T. ) ;
#180 = ORIENTED_EDGE ( 'NONE', *, *, #182, .F. ) ;
#181 = PERSON_AND_ORGANIZATION ( #155, #76 ) ;
#182 = EDGE_CURVE ( 'NONE', #208, #233, #47, .T. ) ;
#183 = DATE_AND_TIME ( #51, #114 ) ;
#184 = APPROVAL_STATUS ( 'not_yet_approved' ) ;
#185 = PERSON_AND_ORGANIZATION ( #155, #76 ) ;
#186 = COORDINATED_UNIVERSAL_TIME_OFFSET ( 1, 0, .AHEAD. ) ;
#187 = CC_DESIGN_PERSON_AND_ORGANIZATION_ASSIGNMENT ( #121, #203, ( #83 ) ) ;
#188 = APPLICATION_CONTEXT ( 'configuration controlled 3d designs of mechanical parts and assemblies' ) ;
#189 = DIRECTION ( 'NONE',  ( 1.000000000000000000, 0.000000000000000000, -0.000000000000000000 ) ) ;
#190 = CYLINDRICAL_SURFACE ( 'NONE', #111, 1.100000000000000089 ) ;
#191 = DIRECTION ( 'NONE',  ( 1.000000000000000000, 0.000000000000000000, 0.000000000000000000 ) ) ;
#192 = VERTEX_POINT ( 'NONE', #226 ) ;
#193 = DIRECTION ( 'NONE',  ( 1.000000000000000000, 0.000000000000000000, 0.000000000000000000 ) ) ;
#194 = EDGE_LOOP ( 'NONE', ( #98, #179, #231, #200 ) ) ;
#195 = APPROVAL_DATE_TIME ( #218, #1 ) ;
#196 = CLOSED_SHELL ( 'NONE', ( #90, #27, #25, #146, #58, #70, #141 ) ) ;
#197 = CALENDAR_DATE ( 2023, 12, 2 ) ;
#198 = APPROVAL_ROLE ( '' ) ;
#199 = AXIS2_PLACEMENT_3D ( 'NONE', #44, #59, #241 ) ;
#200 = ORIENTED_EDGE ( 'NONE', *, *, #31, .F. ) ;
#201 = PERSON_AND_ORGANIZATION_ROLE ( 'creator' ) ;
#202 = ORIENTED_EDGE ( 'NONE', *, *, #229, .T. ) ;
#203 = PERSON_AND_ORGANIZATION_ROLE ( 'design_owner' ) ;
#204 = CARTESIAN_POINT ( 'NONE',  ( 0.000000000000000000, 0.000000000000000000, 160.0000000000000000 ) ) ;
#205 = FACE_OUTER_BOUND ( 'NONE', #71, .T. ) ;
#206 = CC_DESIGN_PERSON_AND_ORGANIZATION_ASSIGNMENT ( #181, #105, ( #95 ) ) ;
#207 = DIRECTION ( 'NONE',  ( 1.000000000000000000, 0.000000000000000000, 0.000000000000000000 ) ) ;
#208 = VERTEX_POINT ( 'NONE', #99 ) ;
#209 = FACE_OUTER_BOUND ( 'NONE', #127, .T. ) ;
#210 = DIRECTION ( 'NONE',  ( 1.000000000000000000, 0.000000000000000000, -0.000000000000000000 ) ) ;
#211 = CC_DESIGN_APPROVAL ( #1, ( #95 ) ) ;
#212 = EDGE_LOOP ( 'NONE', ( #180, #48, #52, #236 ) ) ;
#213 = ORIENTED_EDGE ( 'NONE', *, *, #251, .T. ) ;
#214 = AXIS2_PLACEMENT_3D ( 'NONE', #14, #145, #223 ) ;
#215 = ORIENTED_EDGE ( 'NONE', *, *, #182, .T. ) ;
#216 = CC_DESIGN_SECURITY_CLASSIFICATION ( #103, ( #118 ) ) ;
#217 = ORIENTED_EDGE ( 'NONE', *, *, #15, .T. ) ;
#218 = DATE_AND_TIME ( #30, #140 ) ;
#219 = CC_DESIGN_PERSON_AND_ORGANIZATION_ASSIGNMENT ( #185, #7, ( #118 ) ) ;
#220 = FACE_OUTER_BOUND ( 'NONE', #21, .T. ) ;
#221 = FACE_OUTER_BOUND ( 'NONE', #194, .T. ) ;
#222 = EDGE_CURVE ( 'NONE', #233, #168, #173, .T. ) ;
#223 = DIRECTION ( 'NONE',  ( -1.000000000000000000, 0.000000000000000000, 0.000000000000000000 ) ) ;
#224 = PRODUCT_DEFINITION_SHAPE ( 'NONE', 'NONE',  #95 ) ;
#225 = DIRECTION ( 'NONE',  ( -0.000000000000000000, -0.000000000000000000, -1.000000000000000000 ) ) ;
#226 = CARTESIAN_POINT ( 'NONE',  ( 2.000000000000000000, 2.449293598294706414E-16, 2.000000000000000000 ) ) ;
#227 = CARTESIAN_POINT ( 'NONE',  ( 2.000000000000000000, 2.449293598294706414E-16, 2.000000000000000000 ) ) ;
#228 = DIRECTION ( 'NONE',  ( 1.000000000000000000, 0.000000000000000000, 0.000000000000000000 ) ) ;
#229 = EDGE_CURVE ( 'NONE', #255, #192, #56, .T. ) ;
#230 = ORIENTED_EDGE ( 'NONE', *, *, #64, .T. ) ;
#231 = ORIENTED_EDGE ( 'NONE', *, *, #160, .T. ) ;
#232 = VECTOR ( 'NONE', #248, 1000.000000000000000 ) ;
#233 = VERTEX_POINT ( 'NONE', #63 ) ;
#234 = AXIS2_PLACEMENT_3D ( 'NONE', #204, #115, #189 ) ;
#235 = ORIENTED_EDGE ( 'NONE', *, *, #178, .F. ) ;
#236 = ORIENTED_EDGE ( 'NONE', *, *, #222, .F. ) ;
#237 = APPLICATION_PROTOCOL_DEFINITION ( 'international standard', 'config_control_design', 1994, #89 ) ;
#238 = CC_DESIGN_PERSON_AND_ORGANIZATION_ASSIGNMENT ( #108, #201, ( #118 ) ) ;
#239 = LOCAL_TIME ( 13, 22, 18.00000000000000000, #34 ) ;
#240 =( NAMED_UNIT ( * ) PLANE_ANGLE_UNIT ( ) SI_UNIT ( $, .RADIAN. ) );
#241 = DIRECTION ( 'NONE',  ( 1.000000000000000000, 0.000000000000000000, 0.000000000000000000 ) ) ;
#242 = APPROVAL_ROLE ( '' ) ;
#243 = DATE_AND_TIME ( #8, #239 ) ;
#244 = CC_DESIGN_DATE_AND_TIME_ASSIGNMENT ( #166, #57, ( #103 ) ) ;
#245 = APPROVAL_DATE_TIME ( #243, #73 ) ;
#246 = PRODUCT_RELATED_PRODUCT_CATEGORY ( 'detail', '', ( #83 ) ) ;
#247 = CARTESIAN_POINT ( 'NONE',  ( -1.100000000000000089, 0.000000000000000000, 2.000000000000000000 ) ) ;
#248 = DIRECTION ( 'NONE',  ( -0.000000000000000000, -0.000000000000000000, -1.000000000000000000 ) ) ;
#249 = CIRCLE ( 'NONE', #35, 1.100000000000000089 ) ;
#250 = DIRECTION ( 'NONE',  ( 0.000000000000000000, 0.000000000000000000, 1.000000000000000000 ) ) ;
#251 = EDGE_CURVE ( 'NONE', #26, #50, #28, .T. ) ;
#252 = CARTESIAN_POINT ( 'NONE',  ( -1.100000000000000089, 0.000000000000000000, 160.0000000000000000 ) ) ;
#253 = DIRECTION ( 'NONE',  ( -1.000000000000000000, 0.000000000000000000, 0.000000000000000000 ) ) ;
#254 = AXIS2_PLACEMENT_3D ( 'NONE', #24, #101, #253 ) ;
#255 = VERTEX_POINT ( 'NONE', #164 ) ;
ENDSEC;
END-ISO-10303-21;
