ISO-10303-21;
HEADER;
FILE_DESCRIPTION (( 'STEP AP203' ),
    '1' );
FILE_NAME ('b87d.STEP',
    '2022-07-07T12:22:25',
    ( '' ),
    ( '' ),
    'SwSTEP 2.0',
    'SolidWorks 2019',
    '' );
FILE_SCHEMA (( 'CONFIG_CONTROL_DESIGN' ));
ENDSEC;

DATA;
#1 = CYLINDRICAL_SURFACE ( 'NONE', #133, 7.000000000000000000 ) ;
#2 = EDGE_CURVE ( 'NONE', #134, #170, #26, .T. ) ;
#3 = PERSON ( 'NEURÈENÝ', 'NEURÈENÝ', 'NEURÈENÝ', ('NEURÈENÝ'), ('NEURÈENÝ'), ('NEURÈENÝ') ) ;
#4 = DIRECTION ( 'NONE',  ( 1.000000000000000000, 0.000000000000000000, 0.000000000000000000 ) ) ;
#5 = CYLINDRICAL_SURFACE ( 'NONE', #41, 11.00000000000000000 ) ;
#6 = PERSON_AND_ORGANIZATION_ROLE ( 'classification_officer' ) ;
#7 = PRODUCT ( 'b87d', 'b87d', '', ( #179 ) ) ;
#8 = ORIENTED_EDGE ( 'NONE', *, *, #188, .T. ) ;
#9 = CALENDAR_DATE ( 2022, 7, 7 ) ;
#10 = CC_DESIGN_PERSON_AND_ORGANIZATION_ASSIGNMENT ( #59, #280, ( #7 ) ) ;
#11 = ORIENTED_EDGE ( 'NONE', *, *, #23, .F. ) ;
#12 = AXIS2_PLACEMENT_3D ( 'NONE', #199, #235, #4 ) ;
#13 = DIRECTION ( 'NONE',  ( 0.000000000000000000, 0.000000000000000000, 1.000000000000000000 ) ) ;
#14 = CYLINDRICAL_SURFACE ( 'NONE', #83, 7.000000000000000000 ) ;
#15 = CIRCLE ( 'NONE', #85, 0.1999999999999996503 ) ;
#16 = CARTESIAN_POINT ( 'NONE',  ( -7.000000000000000000, 0.000000000000000000, 207.0000000000000284 ) ) ;
#17 = ADVANCED_FACE ( 'NONE', ( #184 ), #14, .T. ) ;
#18 = DIRECTION ( 'NONE',  ( -1.000000000000000000, 0.000000000000000000, 0.000000000000000000 ) ) ;
#19 = EDGE_LOOP ( 'NONE', ( #11, #73, #292, #256 ) ) ;
#20 = APPROVAL_STATUS ( 'not_yet_approved' ) ;
#21 = DIRECTION ( 'NONE',  ( -1.000000000000000000, 0.000000000000000000, 0.000000000000000000 ) ) ;
#22 = AXIS2_PLACEMENT_3D ( 'NONE', #153, #243, #291 ) ;
#23 = EDGE_CURVE ( 'NONE', #94, #132, #66, .T. ) ;
#24 = CYLINDRICAL_SURFACE ( 'NONE', #45, 11.00000000000000000 ) ;
#25 = CARTESIAN_POINT ( 'NONE',  ( 7.000000000000000000, 8.572527594031473190E-16, 7.200000000000011724 ) ) ;
#26 = CIRCLE ( 'NONE', #277, 7.200000000000000178 ) ;
#27 = DIRECTION ( 'NONE',  ( 1.000000000000000000, 0.000000000000000000, -0.000000000000000000 ) ) ;
#28 = CC_DESIGN_APPROVAL ( #173, ( #285 ) ) ;
#29 = CARTESIAN_POINT ( 'NONE',  ( 0.000000000000000000, 0.000000000000000000, 0.000000000000000000 ) ) ;
#30 = DIRECTION ( 'NONE',  ( 1.000000000000000000, 0.000000000000000000, 0.000000000000000000 ) ) ;
#31 = DATE_TIME_ROLE ( 'classification_date' ) ;
#32 = CARTESIAN_POINT ( 'NONE',  ( 0.000000000000000000, 0.000000000000000000, 0.000000000000000000 ) ) ;
#33 = PERSON_AND_ORGANIZATION_ROLE ( 'creator' ) ;
#34 = AXIS2_PLACEMENT_3D ( 'NONE', #29, #191, #103 ) ;
#35 = ORIENTED_EDGE ( 'NONE', *, *, #219, .F. ) ;
#36 = APPLICATION_CONTEXT ( 'configuration controlled 3d designs of mechanical parts and assemblies' ) ;
#37 = COORDINATED_UNIVERSAL_TIME_OFFSET ( 1, 0, .AHEAD. ) ;
#38 = CC_DESIGN_PERSON_AND_ORGANIZATION_ASSIGNMENT ( #237, #259, ( #285 ) ) ;
#39 = ORIENTED_EDGE ( 'NONE', *, *, #62, .F. ) ;
#40 = DATE_AND_TIME ( #9, #275 ) ;
#41 = AXIS2_PLACEMENT_3D ( 'NONE', #54, #222, #212 ) ;
#42 = MANIFOLD_SOLID_BREP ( 'Zaoblit1', #156 ) ;
#43 = ORIENTED_EDGE ( 'NONE', *, *, #205, .T. ) ;
#44 = EDGE_LOOP ( 'NONE', ( #249, #116 ) ) ;
#45 = AXIS2_PLACEMENT_3D ( 'NONE', #286, #261, #21 ) ;
#46 = EDGE_CURVE ( 'NONE', #157, #166, #272, .T. ) ;
#47 = APPROVAL_PERSON_ORGANIZATION ( #265, #173, #224 ) ;
#48 = VERTEX_POINT ( 'NONE', #302 ) ;
#49 = CC_DESIGN_APPROVAL ( #293, ( #279 ) ) ;
#50 = PERSON_AND_ORGANIZATION ( #3, #78 ) ;
#51 = ORIENTED_EDGE ( 'NONE', *, *, #135, .F. ) ;
#52 = APPROVAL_STATUS ( 'not_yet_approved' ) ;
#53 = DIRECTION ( 'NONE',  ( 1.000000000000000000, 0.000000000000000000, 0.000000000000000000 ) ) ;
#54 = CARTESIAN_POINT ( 'NONE',  ( 0.000000000000000000, 0.000000000000000000, 7.000000000000000000 ) ) ;
#55 =( GEOMETRIC_REPRESENTATION_CONTEXT ( 3 ) GLOBAL_UNCERTAINTY_ASSIGNED_CONTEXT ( ( #71 ) ) GLOBAL_UNIT_ASSIGNED_CONTEXT ( ( #105, #74, #143 ) ) REPRESENTATION_CONTEXT ( 'NONE', 'WORKASPACE' ) );
#56 = CARTESIAN_POINT ( 'NONE',  ( 11.00000000000000000, 1.347111479062088405E-15, 7.000000000000000000 ) ) ;
#57 = DIRECTION ( 'NONE',  ( -0.000000000000000000, -0.000000000000000000, -1.000000000000000000 ) ) ;
#58 = DIRECTION ( 'NONE',  ( -0.000000000000000000, -0.000000000000000000, -1.000000000000000000 ) ) ;
#59 = PERSON_AND_ORGANIZATION ( #3, #78 ) ;
#60 = DIRECTION ( 'NONE',  ( 1.000000000000000000, 0.000000000000000000, -0.000000000000000000 ) ) ;
#61 = PERSON_AND_ORGANIZATION ( #3, #78 ) ;
#62 = EDGE_CURVE ( 'NONE', #48, #253, #250, .T. ) ;
#63 = PERSON_AND_ORGANIZATION ( #3, #78 ) ;
#64 = CIRCLE ( 'NONE', #198, 11.00000000000000000 ) ;
#65 = EDGE_CURVE ( 'NONE', #157, #94, #207, .T. ) ;
#66 = CIRCLE ( 'NONE', #211, 7.000000000000000000 ) ;
#67 = CIRCLE ( 'NONE', #93, 7.200000000000000178 ) ;
#68 = EDGE_LOOP ( 'NONE', ( #51, #186, #87, #206 ) ) ;
#69 = ORIENTED_EDGE ( 'NONE', *, *, #23, .T. ) ;
#70 = ADVANCED_FACE ( 'NONE', ( #298 ), #88, .F. ) ;
#71 = UNCERTAINTY_MEASURE_WITH_UNIT (LENGTH_MEASURE( 1.000000000000000082E-05 ), #105, 'distance_accuracy_value', 'NONE');
#72 = LINE ( 'NONE', #165, #268 ) ;
#73 = ORIENTED_EDGE ( 'NONE', *, *, #135, .T. ) ;
#74 =( NAMED_UNIT ( * ) PLANE_ANGLE_UNIT ( ) SI_UNIT ( $, .RADIAN. ) );
#75 = ORIENTED_EDGE ( 'NONE', *, *, #255, .T. ) ;
#76 = CARTESIAN_POINT ( 'NONE',  ( -11.00000000000000000, 0.000000000000000000, 7.000000000000000000 ) ) ;
#77 = FACE_OUTER_BOUND ( 'NONE', #247, .T. ) ;
#78 = ORGANIZATION ( 'NEURÈENÝ', 'NEURÈENÝ', '' ) ;
#79 = CARTESIAN_POINT ( 'NONE',  ( 0.000000000000000000, 0.000000000000000000, 7.000000000000000000 ) ) ;
#80 = EDGE_CURVE ( 'NONE', #166, #132, #72, .T. ) ;
#81 = LINE ( 'NONE', #56, #236 ) ;
#82 = ADVANCED_BREP_SHAPE_REPRESENTATION ( 'b87d', ( #42, #34 ), #55 ) ;
#83 = AXIS2_PLACEMENT_3D ( 'NONE', #230, #278, #18 ) ;
#84 = DIRECTION ( 'NONE',  ( 0.000000000000000000, 0.000000000000000000, 1.000000000000000000 ) ) ;
#85 = AXIS2_PLACEMENT_3D ( 'NONE', #217, #178, #260 ) ;
#86 = ORIENTED_EDGE ( 'NONE', *, *, #80, .F. ) ;
#87 = ORIENTED_EDGE ( 'NONE', *, *, #295, .T. ) ;
#88 = TOROIDAL_SURFACE ( 'NONE', #98, 7.200000000000000178, 0.2000000000000000111 ) ;
#89 = CARTESIAN_POINT ( 'NONE',  ( 0.000000000000000000, 0.000000000000000000, 7.200000000000011724 ) ) ;
#90 = DIRECTION ( 'NONE',  ( 0.000000000000000000, 0.000000000000000000, 1.000000000000000000 ) ) ;
#91 = ORIENTED_EDGE ( 'NONE', *, *, #188, .F. ) ;
#92 = PRODUCT_DEFINITION ( 'NEZNÁMÝ', '', #285, #182 ) ;
#93 = AXIS2_PLACEMENT_3D ( 'NONE', #238, #58, #30 ) ;
#94 = VERTEX_POINT ( 'NONE', #254 ) ;
#95 = COORDINATED_UNIVERSAL_TIME_OFFSET ( 1, 0, .AHEAD. ) ;
#96 = CARTESIAN_POINT ( 'NONE',  ( 0.000000000000000000, 0.000000000000000000, 7.000000000000000000 ) ) ;
#97 = DIRECTION ( 'NONE',  ( 1.000000000000000000, 0.000000000000000000, 0.000000000000000000 ) ) ;
#98 = AXIS2_PLACEMENT_3D ( 'NONE', #89, #115, #187 ) ;
#99 = PLANE ( 'NONE',  #100 ) ;
#100 = AXIS2_PLACEMENT_3D ( 'NONE', #149, #284, #200 ) ;
#101 = ADVANCED_FACE ( 'NONE', ( #144 ), #24, .T. ) ;
#102 = PLANE ( 'NONE',  #290 ) ;
#103 = DIRECTION ( 'NONE',  ( 1.000000000000000000, 0.000000000000000000, 0.000000000000000000 ) ) ;
#104 = CARTESIAN_POINT ( 'NONE',  ( 11.00000000000000000, 1.347111479062088405E-15, 0.000000000000000000 ) ) ;
#105 =( LENGTH_UNIT ( ) NAMED_UNIT ( * ) SI_UNIT ( .MILLI., .METRE. ) );
#106 = ORIENTED_EDGE ( 'NONE', *, *, #252, .T. ) ;
#107 = COORDINATED_UNIVERSAL_TIME_OFFSET ( 1, 0, .AHEAD. ) ;
#108 = ORIENTED_EDGE ( 'NONE', *, *, #46, .F. ) ;
#109 = APPROVAL ( #20, 'NEURÈENÝ' ) ;
#110 = LOCAL_TIME ( 14, 22, 25.00000000000000000, #171 ) ;
#111 = APPROVAL_ROLE ( '' ) ;
#112 = ORIENTED_EDGE ( 'NONE', *, *, #262, .T. ) ;
#113 = CARTESIAN_POINT ( 'NONE',  ( 0.000000000000000000, 0.000000000000000000, 7.200000000000011724 ) ) ;
#114 = APPROVAL_PERSON_ORGANIZATION ( #61, #109, #201 ) ;
#115 = DIRECTION ( 'NONE',  ( 0.000000000000000000, 0.000000000000000000, 1.000000000000000000 ) ) ;
#116 = ORIENTED_EDGE ( 'NONE', *, *, #180, .T. ) ;
#117 = ADVANCED_FACE ( 'NONE', ( #197 ), #181, .F. ) ;
#118 = DATE_AND_TIME ( #233, #110 ) ;
#119 = VERTEX_POINT ( 'NONE', #124 ) ;
#120 = CALENDAR_DATE ( 2022, 7, 7 ) ;
#121 = CARTESIAN_POINT ( 'NONE',  ( -7.000000000000000000, 0.000000000000000000, 207.0000000000000284 ) ) ;
#122 = CARTESIAN_POINT ( 'NONE',  ( 11.00000000000000000, 1.347111479062088405E-15, 7.000000000000000000 ) ) ;
#123 = ADVANCED_FACE ( 'NONE', ( #263 ), #1, .T. ) ;
#124 = CARTESIAN_POINT ( 'NONE',  ( -11.00000000000000000, 0.000000000000000000, 7.000000000000000000 ) ) ;
#125 = CARTESIAN_POINT ( 'NONE',  ( 7.000000000000000000, 8.572527594031473190E-16, 207.0000000000000284 ) ) ;
#126 = VECTOR ( 'NONE', #221, 1000.000000000000000 ) ;
#127 = DATE_AND_TIME ( #203, #148 ) ;
#128 = LINE ( 'NONE', #76, #126 ) ;
#129 = FACE_OUTER_BOUND ( 'NONE', #227, .T. ) ;
#130 = PLANE ( 'NONE',  #297 ) ;
#131 = PERSON_AND_ORGANIZATION ( #3, #78 ) ;
#132 = VERTEX_POINT ( 'NONE', #25 ) ;
#133 = AXIS2_PLACEMENT_3D ( 'NONE', #305, #57, #239 ) ;
#134 = VERTEX_POINT ( 'NONE', #147 ) ;
#135 = EDGE_CURVE ( 'NONE', #94, #134, #15, .T. ) ;
#136 = EDGE_LOOP ( 'NONE', ( #43, #159 ) ) ;
#137 = DIRECTION ( 'NONE',  ( 1.000000000000000000, 0.000000000000000000, 0.000000000000000000 ) ) ;
#138 = DIRECTION ( 'NONE',  ( 0.000000000000000000, 0.000000000000000000, 1.000000000000000000 ) ) ;
#139 = DIRECTION ( 'NONE',  ( -0.000000000000000000, -0.000000000000000000, -1.000000000000000000 ) ) ;
#140 = APPROVAL_DATE_TIME ( #193, #173 ) ;
#141 = EDGE_LOOP ( 'NONE', ( #189, #75 ) ) ;
#142 = CARTESIAN_POINT ( 'NONE',  ( 0.000000000000000000, 0.000000000000000000, 207.0000000000000284 ) ) ;
#143 =( NAMED_UNIT ( * ) SI_UNIT ( $, .STERADIAN. ) SOLID_ANGLE_UNIT ( ) );
#144 = FACE_OUTER_BOUND ( 'NONE', #248, .T. ) ;
#145 = CC_DESIGN_DATE_AND_TIME_ASSIGNMENT ( #127, #31, ( #279 ) ) ;
#146 = DIRECTION ( 'NONE',  ( 0.000000000000000000, 0.000000000000000000, 1.000000000000000000 ) ) ;
#147 = CARTESIAN_POINT ( 'NONE',  ( -7.200000000000000178, 8.817456953860942303E-16, 7.000000000000006217 ) ) ;
#148 = LOCAL_TIME ( 14, 22, 25.00000000000000000, #107 ) ;
#149 = CARTESIAN_POINT ( 'NONE',  ( 0.000000000000000000, 0.000000000000000000, 207.0000000000000284 ) ) ;
#150 = EDGE_CURVE ( 'NONE', #119, #226, #64, .T. ) ;
#151 = LOCAL_TIME ( 14, 22, 25.00000000000000000, #95 ) ;
#152 = SECURITY_CLASSIFICATION_LEVEL ( 'unclassified' ) ;
#153 = CARTESIAN_POINT ( 'NONE',  ( 7.200000000000000178, 0.000000000000000000, 7.200000000000011724 ) ) ;
#154 = PERSON_AND_ORGANIZATION_ROLE ( 'creator' ) ;
#155 = PRODUCT_DEFINITION_SHAPE ( 'NONE', 'NONE',  #92 ) ;
#156 = CLOSED_SHELL ( 'NONE', ( #70, #123, #304, #101, #163, #273, #17, #175, #117 ) ) ;
#157 = VERTEX_POINT ( 'NONE', #121 ) ;
#158 = CC_DESIGN_DATE_AND_TIME_ASSIGNMENT ( #257, #242, ( #92 ) ) ;
#159 = ORIENTED_EDGE ( 'NONE', *, *, #2, .T. ) ;
#160 = APPROVAL_STATUS ( 'not_yet_approved' ) ;
#161 = AXIS2_PLACEMENT_3D ( 'NONE', #192, #90, #281 ) ;
#162 = APPLICATION_CONTEXT ( 'configuration controlled 3d designs of mechanical parts and assemblies' ) ;
#163 = ADVANCED_FACE ( 'NONE', ( #283, #240 ), #102, .T. ) ;
#164 = AXIS2_PLACEMENT_3D ( 'NONE', #202, #215, #289 ) ;
#165 = CARTESIAN_POINT ( 'NONE',  ( 7.000000000000000000, 8.572527594031473190E-16, 207.0000000000000284 ) ) ;
#166 = VERTEX_POINT ( 'NONE', #125 ) ;
#167 = DIRECTION ( 'NONE',  ( -0.000000000000000000, -0.000000000000000000, -1.000000000000000000 ) ) ;
#168 = LOCAL_TIME ( 14, 22, 25.00000000000000000, #214 ) ;
#169 = ORIENTED_EDGE ( 'NONE', *, *, #255, .F. ) ;
#170 = VERTEX_POINT ( 'NONE', #174 ) ;
#171 = COORDINATED_UNIVERSAL_TIME_OFFSET ( 1, 0, .AHEAD. ) ;
#172 = DIRECTION ( 'NONE',  ( 1.000000000000000000, 0.000000000000000000, 0.000000000000000000 ) ) ;
#173 = APPROVAL ( #52, 'NEURÈENÝ' ) ;
#174 = CARTESIAN_POINT ( 'NONE',  ( 7.200000000000000178, 0.000000000000000000, 7.000000000000006217 ) ) ;
#175 = ADVANCED_FACE ( 'NONE', ( #218 ), #99, .T. ) ;
#176 = DIRECTION ( 'NONE',  ( 0.000000000000000000, 0.000000000000000000, 1.000000000000000000 ) ) ;
#177 = APPLICATION_PROTOCOL_DEFINITION ( 'international standard', 'config_control_design', 1994, #162 ) ;
#178 = DIRECTION ( 'NONE',  ( 1.224646799147353207E-16, 1.000000000000000000, -0.000000000000000000 ) ) ;
#179 = MECHANICAL_CONTEXT ( 'NONE', #162, 'mechanical' ) ;
#180 = EDGE_CURVE ( 'NONE', #166, #157, #270, .T. ) ;
#181 = TOROIDAL_SURFACE ( 'NONE', #216, 7.200000000000000178, 0.2000000000000000111 ) ;
#182 = DESIGN_CONTEXT ( 'detailed design', #36, 'design' ) ;
#183 = AXIS2_PLACEMENT_3D ( 'NONE', #306, #84, #97 ) ;
#184 = FACE_OUTER_BOUND ( 'NONE', #274, .T. ) ;
#185 = CIRCLE ( 'NONE', #164, 11.00000000000000000 ) ;
#186 = ORIENTED_EDGE ( 'NONE', *, *, #252, .F. ) ;
#187 = DIRECTION ( 'NONE',  ( 1.000000000000000000, 0.000000000000000000, 0.000000000000000000 ) ) ;
#188 = EDGE_CURVE ( 'NONE', #226, #253, #81, .T. ) ;
#189 = ORIENTED_EDGE ( 'NONE', *, *, #150, .T. ) ;
#190 = APPROVAL_PERSON_ORGANIZATION ( #63, #293, #111 ) ;
#191 = DIRECTION ( 'NONE',  ( 0.000000000000000000, 0.000000000000000000, 1.000000000000000000 ) ) ;
#192 = CARTESIAN_POINT ( 'NONE',  ( 0.000000000000000000, 0.000000000000000000, 0.000000000000000000 ) ) ;
#193 = DATE_AND_TIME ( #245, #168 ) ;
#194 = PRODUCT_RELATED_PRODUCT_CATEGORY ( 'detail', '', ( #7 ) ) ;
#195 = DIRECTION ( 'NONE',  ( -0.000000000000000000, -0.000000000000000000, -1.000000000000000000 ) ) ;
#196 = AXIS2_PLACEMENT_3D ( 'NONE', #234, #138, #231 ) ;
#197 = FACE_OUTER_BOUND ( 'NONE', #68, .T. ) ;
#198 = AXIS2_PLACEMENT_3D ( 'NONE', #79, #241, #53 ) ;
#199 = CARTESIAN_POINT ( 'NONE',  ( 0.000000000000000000, 0.000000000000000000, 7.200000000000011724 ) ) ;
#200 = DIRECTION ( 'NONE',  ( 1.000000000000000000, 0.000000000000000000, -0.000000000000000000 ) ) ;
#201 = APPROVAL_ROLE ( '' ) ;
#202 = CARTESIAN_POINT ( 'NONE',  ( 0.000000000000000000, 0.000000000000000000, 7.000000000000000000 ) ) ;
#203 = CALENDAR_DATE ( 2022, 7, 7 ) ;
#204 = CC_DESIGN_PERSON_AND_ORGANIZATION_ASSIGNMENT ( #131, #6, ( #279 ) ) ;
#205 = EDGE_CURVE ( 'NONE', #170, #134, #67, .T. ) ;
#206 = ORIENTED_EDGE ( 'NONE', *, *, #2, .F. ) ;
#207 = LINE ( 'NONE', #16, #223 ) ;
#208 = CC_DESIGN_PERSON_AND_ORGANIZATION_ASSIGNMENT ( #50, #154, ( #92 ) ) ;
#209 = EDGE_LOOP ( 'NONE', ( #269, #258, #106, #301 ) ) ;
#210 = DIRECTION ( 'NONE',  ( 1.000000000000000000, 0.000000000000000000, 0.000000000000000000 ) ) ;
#211 = AXIS2_PLACEMENT_3D ( 'NONE', #113, #13, #210 ) ;
#212 = DIRECTION ( 'NONE',  ( -1.000000000000000000, 0.000000000000000000, 0.000000000000000000 ) ) ;
#213 = CARTESIAN_POINT ( 'NONE',  ( 0.000000000000000000, 0.000000000000000000, 7.000000000000000000 ) ) ;
#214 = COORDINATED_UNIVERSAL_TIME_OFFSET ( 1, 0, .AHEAD. ) ;
#215 = DIRECTION ( 'NONE',  ( 0.000000000000000000, 0.000000000000000000, 1.000000000000000000 ) ) ;
#216 = AXIS2_PLACEMENT_3D ( 'NONE', #264, #146, #172 ) ;
#217 = CARTESIAN_POINT ( 'NONE',  ( -7.200000000000000178, 8.817456953860942303E-16, 7.200000000000011724 ) ) ;
#218 = FACE_OUTER_BOUND ( 'NONE', #44, .T. ) ;
#219 = EDGE_CURVE ( 'NONE', #119, #48, #128, .T. ) ;
#220 = APPLICATION_PROTOCOL_DEFINITION ( 'international standard', 'config_control_design', 1994, #36 ) ;
#221 = DIRECTION ( 'NONE',  ( -0.000000000000000000, -0.000000000000000000, -1.000000000000000000 ) ) ;
#222 = DIRECTION ( 'NONE',  ( -0.000000000000000000, -0.000000000000000000, -1.000000000000000000 ) ) ;
#223 = VECTOR ( 'NONE', #296, 1000.000000000000000 ) ;
#224 = APPROVAL_ROLE ( '' ) ;
#225 = CIRCLE ( 'NONE', #22, 0.1999999999999996503 ) ;
#226 = VERTEX_POINT ( 'NONE', #122 ) ;
#227 = EDGE_LOOP ( 'NONE', ( #169, #8, #112, #35 ) ) ;
#228 = AXIS2_PLACEMENT_3D ( 'NONE', #142, #287, #303 ) ;
#229 = ORIENTED_EDGE ( 'NONE', *, *, #65, .T. ) ;
#230 = CARTESIAN_POINT ( 'NONE',  ( 0.000000000000000000, 0.000000000000000000, 207.0000000000000284 ) ) ;
#231 = DIRECTION ( 'NONE',  ( 1.000000000000000000, 0.000000000000000000, 0.000000000000000000 ) ) ;
#232 = ORIENTED_EDGE ( 'NONE', *, *, #262, .F. ) ;
#233 = CALENDAR_DATE ( 2022, 7, 7 ) ;
#234 = CARTESIAN_POINT ( 'NONE',  ( 0.000000000000000000, 0.000000000000000000, 207.0000000000000284 ) ) ;
#235 = DIRECTION ( 'NONE',  ( 0.000000000000000000, 0.000000000000000000, 1.000000000000000000 ) ) ;
#236 = VECTOR ( 'NONE', #195, 1000.000000000000000 ) ;
#237 = PERSON_AND_ORGANIZATION ( #3, #78 ) ;
#238 = CARTESIAN_POINT ( 'NONE',  ( 0.000000000000000000, 0.000000000000000000, 7.000000000000000000 ) ) ;
#239 = DIRECTION ( 'NONE',  ( -1.000000000000000000, 0.000000000000000000, 0.000000000000000000 ) ) ;
#240 = FACE_OUTER_BOUND ( 'NONE', #141, .T. ) ;
#241 = DIRECTION ( 'NONE',  ( 0.000000000000000000, 0.000000000000000000, 1.000000000000000000 ) ) ;
#242 = DATE_TIME_ROLE ( 'creation_date' ) ;
#243 = DIRECTION ( 'NONE',  ( 0.000000000000000000, -1.000000000000000000, 0.000000000000000000 ) ) ;
#244 = CC_DESIGN_PERSON_AND_ORGANIZATION_ASSIGNMENT ( #282, #33, ( #285 ) ) ;
#245 = CALENDAR_DATE ( 2022, 7, 7 ) ;
#246 = CIRCLE ( 'NONE', #12, 7.000000000000000000 ) ;
#247 = EDGE_LOOP ( 'NONE', ( #39, #232 ) ) ;
#248 = EDGE_LOOP ( 'NONE', ( #91, #251, #300, #276 ) ) ;
#249 = ORIENTED_EDGE ( 'NONE', *, *, #46, .T. ) ;
#250 = CIRCLE ( 'NONE', #161, 11.00000000000000000 ) ;
#251 = ORIENTED_EDGE ( 'NONE', *, *, #150, .F. ) ;
#252 = EDGE_CURVE ( 'NONE', #132, #94, #246, .T. ) ;
#253 = VERTEX_POINT ( 'NONE', #104 ) ;
#254 = CARTESIAN_POINT ( 'NONE',  ( -7.000000000000000000, 0.000000000000000000, 7.200000000000011724 ) ) ;
#255 = EDGE_CURVE ( 'NONE', #226, #119, #185, .T. ) ;
#256 = ORIENTED_EDGE ( 'NONE', *, *, #295, .F. ) ;
#257 = DATE_AND_TIME ( #120, #151 ) ;
#258 = ORIENTED_EDGE ( 'NONE', *, *, #80, .T. ) ;
#259 = PERSON_AND_ORGANIZATION_ROLE ( 'design_supplier' ) ;
#260 = DIRECTION ( 'NONE',  ( -1.000000000000000000, 1.224646799147358384E-16, 0.000000000000000000 ) ) ;
#261 = DIRECTION ( 'NONE',  ( -0.000000000000000000, -0.000000000000000000, -1.000000000000000000 ) ) ;
#262 = EDGE_CURVE ( 'NONE', #253, #48, #266, .T. ) ;
#263 = FACE_OUTER_BOUND ( 'NONE', #209, .T. ) ;
#264 = CARTESIAN_POINT ( 'NONE',  ( 0.000000000000000000, 0.000000000000000000, 7.200000000000011724 ) ) ;
#265 = PERSON_AND_ORGANIZATION ( #3, #78 ) ;
#266 = CIRCLE ( 'NONE', #183, 11.00000000000000000 ) ;
#267 = DIRECTION ( 'NONE',  ( 0.000000000000000000, 0.000000000000000000, 1.000000000000000000 ) ) ;
#268 = VECTOR ( 'NONE', #167, 1000.000000000000000 ) ;
#269 = ORIENTED_EDGE ( 'NONE', *, *, #180, .F. ) ;
#270 = CIRCLE ( 'NONE', #228, 7.000000000000000000 ) ;
#271 = APPROVAL_DATE_TIME ( #40, #293 ) ;
#272 = CIRCLE ( 'NONE', #196, 7.000000000000000000 ) ;
#273 = ADVANCED_FACE ( 'NONE', ( #77 ), #130, .F. ) ;
#274 = EDGE_LOOP ( 'NONE', ( #86, #108, #229, #69 ) ) ;
#275 = LOCAL_TIME ( 14, 22, 25.00000000000000000, #37 ) ;
#276 = ORIENTED_EDGE ( 'NONE', *, *, #62, .T. ) ;
#277 = AXIS2_PLACEMENT_3D ( 'NONE', #213, #139, #137 ) ;
#278 = DIRECTION ( 'NONE',  ( -0.000000000000000000, -0.000000000000000000, -1.000000000000000000 ) ) ;
#279 = SECURITY_CLASSIFICATION ( '', '', #152 ) ;
#280 = PERSON_AND_ORGANIZATION_ROLE ( 'design_owner' ) ;
#281 = DIRECTION ( 'NONE',  ( 1.000000000000000000, 0.000000000000000000, 0.000000000000000000 ) ) ;
#282 = PERSON_AND_ORGANIZATION ( #3, #78 ) ;
#283 = FACE_BOUND ( 'NONE', #136, .T. ) ;
#284 = DIRECTION ( 'NONE',  ( 0.000000000000000000, 0.000000000000000000, 1.000000000000000000 ) ) ;
#285 = PRODUCT_DEFINITION_FORMATION_WITH_SPECIFIED_SOURCE ( 'LIBOVOLNÝ', '', #7, .NOT_KNOWN. ) ;
#286 = CARTESIAN_POINT ( 'NONE',  ( 0.000000000000000000, 0.000000000000000000, 7.000000000000000000 ) ) ;
#287 = DIRECTION ( 'NONE',  ( 0.000000000000000000, 0.000000000000000000, 1.000000000000000000 ) ) ;
#288 = APPROVAL_DATE_TIME ( #118, #109 ) ;
#289 = DIRECTION ( 'NONE',  ( 1.000000000000000000, 0.000000000000000000, 0.000000000000000000 ) ) ;
#290 = AXIS2_PLACEMENT_3D ( 'NONE', #96, #176, #27 ) ;
#291 = DIRECTION ( 'NONE',  ( 0.000000000000000000, 0.000000000000000000, -1.000000000000000000 ) ) ;
#292 = ORIENTED_EDGE ( 'NONE', *, *, #205, .F. ) ;
#293 = APPROVAL ( #160, 'NEURÈENÝ' ) ;
#294 = SHAPE_DEFINITION_REPRESENTATION ( #155, #82 ) ;
#295 = EDGE_CURVE ( 'NONE', #132, #170, #225, .T. ) ;
#296 = DIRECTION ( 'NONE',  ( -0.000000000000000000, -0.000000000000000000, -1.000000000000000000 ) ) ;
#297 = AXIS2_PLACEMENT_3D ( 'NONE', #32, #267, #60 ) ;
#298 = FACE_OUTER_BOUND ( 'NONE', #19, .T. ) ;
#299 = CC_DESIGN_SECURITY_CLASSIFICATION ( #279, ( #285 ) ) ;
#300 = ORIENTED_EDGE ( 'NONE', *, *, #219, .T. ) ;
#301 = ORIENTED_EDGE ( 'NONE', *, *, #65, .F. ) ;
#302 = CARTESIAN_POINT ( 'NONE',  ( -11.00000000000000000, 0.000000000000000000, 0.000000000000000000 ) ) ;
#303 = DIRECTION ( 'NONE',  ( 1.000000000000000000, 0.000000000000000000, 0.000000000000000000 ) ) ;
#304 = ADVANCED_FACE ( 'NONE', ( #129 ), #5, .T. ) ;
#305 = CARTESIAN_POINT ( 'NONE',  ( 0.000000000000000000, 0.000000000000000000, 207.0000000000000284 ) ) ;
#306 = CARTESIAN_POINT ( 'NONE',  ( 0.000000000000000000, 0.000000000000000000, 0.000000000000000000 ) ) ;
#307 = CC_DESIGN_APPROVAL ( #109, ( #92 ) ) ;
ENDSEC;
END-ISO-10303-21;
