ISO-10303-21;
HEADER;
FILE_DESCRIPTION (( 'STEP AP203' ),
    '1' );
FILE_NAME ('fa44.STEP',
    '2023-02-12T12:23:21',
    ( '' ),
    ( '' ),
    'SwSTEP 2.0',
    'SolidWorks 2019',
    '' );
FILE_SCHEMA (( 'CONFIG_CONTROL_DESIGN' ));
ENDSEC;

DATA;
#1 = ADVANCED_FACE ( 'NONE', ( #33 ), #89, .T. ) ;
#2 = AXIS2_PLACEMENT_3D ( 'NONE', #124, #66, #228 ) ;
#3 = DIRECTION ( 'NONE',  ( 1.000000000000000000, 0.000000000000000000, -0.000000000000000000 ) ) ;
#4 = APPLICATION_PROTOCOL_DEFINITION ( 'international standard', 'config_control_design', 1994, #136 ) ;
#5 = SECURITY_CLASSIFICATION ( '', '', #80 ) ;
#6 = CARTESIAN_POINT ( 'NONE',  ( 0.000000000000000000, 0.000000000000000000, 200.0000000000000000 ) ) ;
#7 = DATE_AND_TIME ( #23, #141 ) ;
#8 = COORDINATED_UNIVERSAL_TIME_OFFSET ( 1, 0, .AHEAD. ) ;
#9 = CYLINDRICAL_SURFACE ( 'NONE', #95, 1.000000000000000000 ) ;
#10 = LOCAL_TIME ( 13, 23, 21.00000000000000000, #218 ) ;
#11 = CC_DESIGN_PERSON_AND_ORGANIZATION_ASSIGNMENT ( #162, #42, ( #5 ) ) ;
#12 = PLANE ( 'NONE',  #2 ) ;
#13 = EDGE_LOOP ( 'NONE', ( #119, #207, #114, #165 ) ) ;
#14 = CARTESIAN_POINT ( 'NONE',  ( -1.000000000000000000, 0.000000000000000000, 2.000000000000000000 ) ) ;
#15 = CARTESIAN_POINT ( 'NONE',  ( 0.000000000000000000, 0.000000000000000000, 200.0000000000000000 ) ) ;
#16 = PERSON ( 'NEURÈENÝ', 'NEURÈENÝ', 'NEURÈENÝ', ('NEURÈENÝ'), ('NEURÈENÝ'), ('NEURÈENÝ') ) ;
#17 = CC_DESIGN_PERSON_AND_ORGANIZATION_ASSIGNMENT ( #21, #158, ( #236 ) ) ;
#18 =( NAMED_UNIT ( * ) SI_UNIT ( $, .STERADIAN. ) SOLID_ANGLE_UNIT ( ) );
#19 = DIRECTION ( 'NONE',  ( 0.000000000000000000, 0.000000000000000000, 1.000000000000000000 ) ) ;
#20 = PERSON_AND_ORGANIZATION_ROLE ( 'design_owner' ) ;
#21 = PERSON_AND_ORGANIZATION ( #16, #170 ) ;
#22 = DIRECTION ( 'NONE',  ( 0.000000000000000000, 0.000000000000000000, 1.000000000000000000 ) ) ;
#23 = CALENDAR_DATE ( 2023, 12, 2 ) ;
#24 = APPROVAL_DATE_TIME ( #224, #63 ) ;
#25 = ORIENTED_EDGE ( 'NONE', *, *, #240, .F. ) ;
#26 = DIRECTION ( 'NONE',  ( 1.000000000000000000, 0.000000000000000000, 0.000000000000000000 ) ) ;
#27 = ADVANCED_FACE ( 'NONE', ( #209 ), #29, .T. ) ;
#28 = VERTEX_POINT ( 'NONE', #48 ) ;
#29 = CYLINDRICAL_SURFACE ( 'NONE', #37, 2.000000000000000000 ) ;
#30 = CARTESIAN_POINT ( 'NONE',  ( 1.000000000000000000, 1.224646799147353207E-16, 200.0000000000000000 ) ) ;
#31 = DIRECTION ( 'NONE',  ( -0.000000000000000000, -0.000000000000000000, -1.000000000000000000 ) ) ;
#32 = ORIENTED_EDGE ( 'NONE', *, *, #153, .F. ) ;
#33 = FACE_OUTER_BOUND ( 'NONE', #179, .T. ) ;
#34 = CC_DESIGN_SECURITY_CLASSIFICATION ( #5, ( #100 ) ) ;
#35 = ORIENTED_EDGE ( 'NONE', *, *, #128, .F. ) ;
#36 = PRODUCT_DEFINITION_SHAPE ( 'NONE', 'NONE',  #236 ) ;
#37 = AXIS2_PLACEMENT_3D ( 'NONE', #235, #86, #212 ) ;
#38 = DATE_AND_TIME ( #239, #125 ) ;
#39 = CIRCLE ( 'NONE', #244, 2.000000000000000000 ) ;
#40 = ORIENTED_EDGE ( 'NONE', *, *, #50, .T. ) ;
#41 = APPLICATION_PROTOCOL_DEFINITION ( 'international standard', 'config_control_design', 1994, #172 ) ;
#42 = PERSON_AND_ORGANIZATION_ROLE ( 'classification_officer' ) ;
#43 = DIRECTION ( 'NONE',  ( -0.000000000000000000, -0.000000000000000000, -1.000000000000000000 ) ) ;
#44 = ORIENTED_EDGE ( 'NONE', *, *, #62, .T. ) ;
#45 = CLOSED_SHELL ( 'NONE', ( #121, #27, #1, #146, #90, #156, #204 ) ) ;
#46 = ORIENTED_EDGE ( 'NONE', *, *, #98, .F. ) ;
#47 = CARTESIAN_POINT ( 'NONE',  ( 0.000000000000000000, 0.000000000000000000, 200.0000000000000000 ) ) ;
#48 = CARTESIAN_POINT ( 'NONE',  ( 2.000000000000000000, 2.449293598294706414E-16, 0.000000000000000000 ) ) ;
#49 = CARTESIAN_POINT ( 'NONE',  ( 0.000000000000000000, 0.000000000000000000, 2.000000000000000000 ) ) ;
#50 = EDGE_CURVE ( 'NONE', #149, #161, #254, .T. ) ;
#51 = DIRECTION ( 'NONE',  ( 0.000000000000000000, 0.000000000000000000, 1.000000000000000000 ) ) ;
#52 = AXIS2_PLACEMENT_3D ( 'NONE', #213, #31, #193 ) ;
#53 = EDGE_LOOP ( 'NONE', ( #186, #250 ) ) ;
#54 = APPROVAL_PERSON_ORGANIZATION ( #79, #183, #137 ) ;
#55 = LINE ( 'NONE', #142, #91 ) ;
#56 = COORDINATED_UNIVERSAL_TIME_OFFSET ( 1, 0, .AHEAD. ) ;
#57 = DIRECTION ( 'NONE',  ( 0.000000000000000000, 0.000000000000000000, 1.000000000000000000 ) ) ;
#58 = APPROVAL_STATUS ( 'not_yet_approved' ) ;
#59 = EDGE_LOOP ( 'NONE', ( #242, #232, #44, #247 ) ) ;
#60 = CC_DESIGN_PERSON_AND_ORGANIZATION_ASSIGNMENT ( #78, #20, ( #151 ) ) ;
#61 = DIRECTION ( 'NONE',  ( 1.000000000000000000, 0.000000000000000000, 0.000000000000000000 ) ) ;
#62 = EDGE_CURVE ( 'NONE', #200, #122, #233, .T. ) ;
#63 = APPROVAL ( #103, 'NEURÈENÝ' ) ;
#64 = FACE_OUTER_BOUND ( 'NONE', #123, .T. ) ;
#65 = CARTESIAN_POINT ( 'NONE',  ( -2.000000000000000000, 0.000000000000000000, 2.000000000000000000 ) ) ;
#66 = DIRECTION ( 'NONE',  ( 0.000000000000000000, 0.000000000000000000, 1.000000000000000000 ) ) ;
#67 = LOCAL_TIME ( 13, 23, 21.00000000000000000, #56 ) ;
#68 = CIRCLE ( 'NONE', #199, 1.000000000000000000 ) ;
#69 = DIRECTION ( 'NONE',  ( 0.000000000000000000, 0.000000000000000000, 1.000000000000000000 ) ) ;
#70 = DIRECTION ( 'NONE',  ( -0.000000000000000000, -0.000000000000000000, -1.000000000000000000 ) ) ;
#71 = APPROVAL_PERSON_ORGANIZATION ( #144, #63, #185 ) ;
#72 = EDGE_CURVE ( 'NONE', #161, #122, #107, .T. ) ;
#73 = APPROVAL ( #178, 'NEURÈENÝ' ) ;
#74 = DIRECTION ( 'NONE',  ( 1.000000000000000000, 0.000000000000000000, 0.000000000000000000 ) ) ;
#75 = AXIS2_PLACEMENT_3D ( 'NONE', #15, #94, #74 ) ;
#76 = CC_DESIGN_APPROVAL ( #73, ( #100 ) ) ;
#77 = UNCERTAINTY_MEASURE_WITH_UNIT (LENGTH_MEASURE( 1.000000000000000082E-05 ), #176, 'distance_accuracy_value', 'NONE');
#78 = PERSON_AND_ORGANIZATION ( #16, #170 ) ;
#79 = PERSON_AND_ORGANIZATION ( #16, #170 ) ;
#80 = SECURITY_CLASSIFICATION_LEVEL ( 'unclassified' ) ;
#81 = ORIENTED_EDGE ( 'NONE', *, *, #131, .F. ) ;
#82 = CARTESIAN_POINT ( 'NONE',  ( 0.000000000000000000, 0.000000000000000000, 2.000000000000000000 ) ) ;
#83 =( NAMED_UNIT ( * ) PLANE_ANGLE_UNIT ( ) SI_UNIT ( $, .RADIAN. ) );
#84 = DIRECTION ( 'NONE',  ( -0.000000000000000000, -0.000000000000000000, -1.000000000000000000 ) ) ;
#85 = CARTESIAN_POINT ( 'NONE',  ( 2.000000000000000000, 2.449293598294706414E-16, 2.000000000000000000 ) ) ;
#86 = DIRECTION ( 'NONE',  ( -0.000000000000000000, -0.000000000000000000, -1.000000000000000000 ) ) ;
#87 = CARTESIAN_POINT ( 'NONE',  ( 0.000000000000000000, 0.000000000000000000, 2.000000000000000000 ) ) ;
#88 = DIRECTION ( 'NONE',  ( -0.000000000000000000, -0.000000000000000000, -1.000000000000000000 ) ) ;
#89 = CYLINDRICAL_SURFACE ( 'NONE', #208, 2.000000000000000000 ) ;
#90 = ADVANCED_FACE ( 'NONE', ( #64 ), #12, .F. ) ;
#91 = VECTOR ( 'NONE', #220, 1000.000000000000000 ) ;
#92 = CC_DESIGN_DATE_AND_TIME_ASSIGNMENT ( #7, #163, ( #5 ) ) ;
#93 = AXIS2_PLACEMENT_3D ( 'NONE', #49, #69, #150 ) ;
#94 = DIRECTION ( 'NONE',  ( 0.000000000000000000, 0.000000000000000000, 1.000000000000000000 ) ) ;
#95 = AXIS2_PLACEMENT_3D ( 'NONE', #47, #84, #166 ) ;
#96 = CARTESIAN_POINT ( 'NONE',  ( -1.000000000000000000, 0.000000000000000000, 200.0000000000000000 ) ) ;
#97 = FACE_OUTER_BOUND ( 'NONE', #53, .T. ) ;
#98 = EDGE_CURVE ( 'NONE', #195, #28, #148, .T. ) ;
#99 = APPROVAL_DATE_TIME ( #223, #73 ) ;
#100 = PRODUCT_DEFINITION_FORMATION_WITH_SPECIFIED_SOURCE ( 'LIBOVOLNÝ', '', #151, .NOT_KNOWN. ) ;
#101 = DIRECTION ( 'NONE',  ( 1.000000000000000000, 0.000000000000000000, 0.000000000000000000 ) ) ;
#102 = DATE_TIME_ROLE ( 'creation_date' ) ;
#103 = APPROVAL_STATUS ( 'not_yet_approved' ) ;
#104 = FACE_OUTER_BOUND ( 'NONE', #225, .T. ) ;
#105 = PERSON_AND_ORGANIZATION ( #16, #170 ) ;
#106 = CALENDAR_DATE ( 2023, 12, 2 ) ;
#107 = CIRCLE ( 'NONE', #93, 1.000000000000000000 ) ;
#108 = CC_DESIGN_PERSON_AND_ORGANIZATION_ASSIGNMENT ( #105, #180, ( #100 ) ) ;
#109 = DESIGN_CONTEXT ( 'detailed design', #172, 'design' ) ;
#110 = CC_DESIGN_DATE_AND_TIME_ASSIGNMENT ( #38, #102, ( #236 ) ) ;
#111 = CARTESIAN_POINT ( 'NONE',  ( -2.000000000000000000, 0.000000000000000000, 0.000000000000000000 ) ) ;
#112 = DIRECTION ( 'NONE',  ( 1.000000000000000000, 0.000000000000000000, 0.000000000000000000 ) ) ;
#113 = PERSON_AND_ORGANIZATION ( #16, #170 ) ;
#114 = ORIENTED_EDGE ( 'NONE', *, *, #240, .T. ) ;
#115 = DIRECTION ( 'NONE',  ( 1.000000000000000000, 0.000000000000000000, -0.000000000000000000 ) ) ;
#116 = DIRECTION ( 'NONE',  ( 0.000000000000000000, 0.000000000000000000, 1.000000000000000000 ) ) ;
#117 = FACE_OUTER_BOUND ( 'NONE', #167, .T. ) ;
#118 = CIRCLE ( 'NONE', #177, 2.000000000000000000 ) ;
#119 = ORIENTED_EDGE ( 'NONE', *, *, #174, .F. ) ;
#120 = DIRECTION ( 'NONE',  ( 0.000000000000000000, 0.000000000000000000, 1.000000000000000000 ) ) ;
#121 = ADVANCED_FACE ( 'NONE', ( #117 ), #206, .T. ) ;
#122 = VERTEX_POINT ( 'NONE', #14 ) ;
#123 = EDGE_LOOP ( 'NONE', ( #32, #25 ) ) ;
#124 = CARTESIAN_POINT ( 'NONE',  ( 0.000000000000000000, 0.000000000000000000, 0.000000000000000000 ) ) ;
#125 = LOCAL_TIME ( 13, 23, 21.00000000000000000, #140 ) ;
#126 = CARTESIAN_POINT ( 'NONE',  ( 0.000000000000000000, 0.000000000000000000, 2.000000000000000000 ) ) ;
#127 = AXIS2_PLACEMENT_3D ( 'NONE', #143, #159, #245 ) ;
#128 = EDGE_CURVE ( 'NONE', #168, #195, #169, .T. ) ;
#129 = CC_DESIGN_APPROVAL ( #63, ( #5 ) ) ;
#130 = ADVANCED_BREP_SHAPE_REPRESENTATION ( 'fa44', ( #234, #127 ), #171 ) ;
#131 = EDGE_CURVE ( 'NONE', #149, #200, #154, .T. ) ;
#132 = EDGE_CURVE ( 'NONE', #168, #219, #55, .T. ) ;
#133 = VECTOR ( 'NONE', #43, 1000.000000000000000 ) ;
#134 = CC_DESIGN_PERSON_AND_ORGANIZATION_ASSIGNMENT ( #113, #221, ( #100 ) ) ;
#135 = DATE_AND_TIME ( #106, #10 ) ;
#136 = APPLICATION_CONTEXT ( 'configuration controlled 3d designs of mechanical parts and assemblies' ) ;
#137 = APPROVAL_ROLE ( '' ) ;
#138 = AXIS2_PLACEMENT_3D ( 'NONE', #246, #22, #112 ) ;
#139 = ORIENTED_EDGE ( 'NONE', *, *, #155, .F. ) ;
#140 = COORDINATED_UNIVERSAL_TIME_OFFSET ( 1, 0, .AHEAD. ) ;
#141 = LOCAL_TIME ( 13, 23, 21.00000000000000000, #203 ) ;
#142 = CARTESIAN_POINT ( 'NONE',  ( -2.000000000000000000, 0.000000000000000000, 2.000000000000000000 ) ) ;
#143 = CARTESIAN_POINT ( 'NONE',  ( 0.000000000000000000, 0.000000000000000000, 0.000000000000000000 ) ) ;
#144 = PERSON_AND_ORGANIZATION ( #16, #170 ) ;
#145 = CARTESIAN_POINT ( 'NONE',  ( 0.000000000000000000, 0.000000000000000000, 0.000000000000000000 ) ) ;
#146 = ADVANCED_FACE ( 'NONE', ( #201, #104 ), #251, .T. ) ;
#147 = LOCAL_TIME ( 13, 23, 21.00000000000000000, #8 ) ;
#148 = LINE ( 'NONE', #85, #133 ) ;
#149 = VERTEX_POINT ( 'NONE', #187 ) ;
#150 = DIRECTION ( 'NONE',  ( 1.000000000000000000, 0.000000000000000000, 0.000000000000000000 ) ) ;
#151 = PRODUCT ( 'fa44', 'fa44', '', ( #202 ) ) ;
#152 = CC_DESIGN_APPROVAL ( #183, ( #236 ) ) ;
#153 = EDGE_CURVE ( 'NONE', #219, #28, #118, .T. ) ;
#154 = CIRCLE ( 'NONE', #184, 1.000000000000000000 ) ;
#155 = EDGE_CURVE ( 'NONE', #122, #161, #68, .T. ) ;
#156 = ADVANCED_FACE ( 'NONE', ( #189 ), #9, .T. ) ;
#157 = CARTESIAN_POINT ( 'NONE',  ( 2.000000000000000000, 2.449293598294706414E-16, 2.000000000000000000 ) ) ;
#158 = PERSON_AND_ORGANIZATION_ROLE ( 'creator' ) ;
#159 = DIRECTION ( 'NONE',  ( 0.000000000000000000, 0.000000000000000000, 1.000000000000000000 ) ) ;
#160 = APPROVAL_ROLE ( '' ) ;
#161 = VERTEX_POINT ( 'NONE', #252 ) ;
#162 = PERSON_AND_ORGANIZATION ( #16, #170 ) ;
#163 = DATE_TIME_ROLE ( 'classification_date' ) ;
#164 = SHAPE_DEFINITION_REPRESENTATION ( #36, #130 ) ;
#165 = ORIENTED_EDGE ( 'NONE', *, *, #132, .F. ) ;
#166 = DIRECTION ( 'NONE',  ( -1.000000000000000000, 0.000000000000000000, 0.000000000000000000 ) ) ;
#167 = EDGE_LOOP ( 'NONE', ( #81, #40, #191, #211 ) ) ;
#168 = VERTEX_POINT ( 'NONE', #65 ) ;
#169 = CIRCLE ( 'NONE', #198, 2.000000000000000000 ) ;
#170 = ORGANIZATION ( 'NEURÈENÝ', 'NEURÈENÝ', '' ) ;
#171 =( GEOMETRIC_REPRESENTATION_CONTEXT ( 3 ) GLOBAL_UNCERTAINTY_ASSIGNED_CONTEXT ( ( #77 ) ) GLOBAL_UNIT_ASSIGNED_CONTEXT ( ( #176, #83, #18 ) ) REPRESENTATION_CONTEXT ( 'NONE', 'WORKASPACE' ) );
#172 = APPLICATION_CONTEXT ( 'configuration controlled 3d designs of mechanical parts and assemblies' ) ;
#173 = DIRECTION ( 'NONE',  ( 0.000000000000000000, 0.000000000000000000, 1.000000000000000000 ) ) ;
#174 = EDGE_CURVE ( 'NONE', #195, #168, #39, .T. ) ;
#175 = PLANE ( 'NONE',  #192 ) ;
#176 =( LENGTH_UNIT ( ) NAMED_UNIT ( * ) SI_UNIT ( .MILLI., .METRE. ) );
#177 = AXIS2_PLACEMENT_3D ( 'NONE', #145, #120, #231 ) ;
#178 = APPROVAL_STATUS ( 'not_yet_approved' ) ;
#179 = EDGE_LOOP ( 'NONE', ( #46, #35, #222, #253 ) ) ;
#180 = PERSON_AND_ORGANIZATION_ROLE ( 'design_supplier' ) ;
#181 = ORIENTED_EDGE ( 'NONE', *, *, #174, .T. ) ;
#182 = CALENDAR_DATE ( 2023, 12, 2 ) ;
#183 = APPROVAL ( #58, 'NEURÈENÝ' ) ;
#184 = AXIS2_PLACEMENT_3D ( 'NONE', #6, #173, #61 ) ;
#185 = APPROVAL_ROLE ( '' ) ;
#186 = ORIENTED_EDGE ( 'NONE', *, *, #217, .T. ) ;
#187 = CARTESIAN_POINT ( 'NONE',  ( 1.000000000000000000, 1.224646799147353207E-16, 200.0000000000000000 ) ) ;
#188 = VECTOR ( 'NONE', #214, 1000.000000000000000 ) ;
#189 = FACE_OUTER_BOUND ( 'NONE', #59, .T. ) ;
#190 = PRODUCT_RELATED_PRODUCT_CATEGORY ( 'detail', '', ( #151 ) ) ;
#191 = ORIENTED_EDGE ( 'NONE', *, *, #72, .T. ) ;
#192 = AXIS2_PLACEMENT_3D ( 'NONE', #238, #51, #3 ) ;
#193 = DIRECTION ( 'NONE',  ( -1.000000000000000000, 0.000000000000000000, 0.000000000000000000 ) ) ;
#194 = CARTESIAN_POINT ( 'NONE',  ( -1.000000000000000000, 0.000000000000000000, 200.0000000000000000 ) ) ;
#195 = VERTEX_POINT ( 'NONE', #157 ) ;
#196 = CIRCLE ( 'NONE', #75, 1.000000000000000000 ) ;
#197 = APPROVAL_PERSON_ORGANIZATION ( #216, #73, #160 ) ;
#198 = AXIS2_PLACEMENT_3D ( 'NONE', #87, #57, #248 ) ;
#199 = AXIS2_PLACEMENT_3D ( 'NONE', #227, #116, #26 ) ;
#200 = VERTEX_POINT ( 'NONE', #96 ) ;
#201 = FACE_BOUND ( 'NONE', #205, .T. ) ;
#202 = MECHANICAL_CONTEXT ( 'NONE', #136, 'mechanical' ) ;
#203 = COORDINATED_UNIVERSAL_TIME_OFFSET ( 1, 0, .AHEAD. ) ;
#204 = ADVANCED_FACE ( 'NONE', ( #97 ), #175, .T. ) ;
#205 = EDGE_LOOP ( 'NONE', ( #139, #229 ) ) ;
#206 = CYLINDRICAL_SURFACE ( 'NONE', #52, 1.000000000000000000 ) ;
#207 = ORIENTED_EDGE ( 'NONE', *, *, #98, .T. ) ;
#208 = AXIS2_PLACEMENT_3D ( 'NONE', #126, #70, #255 ) ;
#209 = FACE_OUTER_BOUND ( 'NONE', #13, .T. ) ;
#210 = CARTESIAN_POINT ( 'NONE',  ( 0.000000000000000000, 0.000000000000000000, 2.000000000000000000 ) ) ;
#211 = ORIENTED_EDGE ( 'NONE', *, *, #62, .F. ) ;
#212 = DIRECTION ( 'NONE',  ( -1.000000000000000000, 0.000000000000000000, 0.000000000000000000 ) ) ;
#213 = CARTESIAN_POINT ( 'NONE',  ( 0.000000000000000000, 0.000000000000000000, 200.0000000000000000 ) ) ;
#214 = DIRECTION ( 'NONE',  ( -0.000000000000000000, -0.000000000000000000, -1.000000000000000000 ) ) ;
#215 = VECTOR ( 'NONE', #88, 1000.000000000000000 ) ;
#216 = PERSON_AND_ORGANIZATION ( #16, #170 ) ;
#217 = EDGE_CURVE ( 'NONE', #200, #149, #196, .T. ) ;
#218 = COORDINATED_UNIVERSAL_TIME_OFFSET ( 1, 0, .AHEAD. ) ;
#219 = VERTEX_POINT ( 'NONE', #111 ) ;
#220 = DIRECTION ( 'NONE',  ( -0.000000000000000000, -0.000000000000000000, -1.000000000000000000 ) ) ;
#221 = PERSON_AND_ORGANIZATION_ROLE ( 'creator' ) ;
#222 = ORIENTED_EDGE ( 'NONE', *, *, #132, .T. ) ;
#223 = DATE_AND_TIME ( #182, #67 ) ;
#224 = DATE_AND_TIME ( #249, #147 ) ;
#225 = EDGE_LOOP ( 'NONE', ( #230, #181 ) ) ;
#226 = DIRECTION ( 'NONE',  ( 0.000000000000000000, 0.000000000000000000, 1.000000000000000000 ) ) ;
#227 = CARTESIAN_POINT ( 'NONE',  ( 0.000000000000000000, 0.000000000000000000, 2.000000000000000000 ) ) ;
#228 = DIRECTION ( 'NONE',  ( 1.000000000000000000, 0.000000000000000000, -0.000000000000000000 ) ) ;
#229 = ORIENTED_EDGE ( 'NONE', *, *, #72, .F. ) ;
#230 = ORIENTED_EDGE ( 'NONE', *, *, #128, .T. ) ;
#231 = DIRECTION ( 'NONE',  ( 1.000000000000000000, 0.000000000000000000, 0.000000000000000000 ) ) ;
#232 = ORIENTED_EDGE ( 'NONE', *, *, #217, .F. ) ;
#233 = LINE ( 'NONE', #194, #215 ) ;
#234 = MANIFOLD_SOLID_BREP ( 'Pøidat vysunutím3', #45 ) ;
#235 = CARTESIAN_POINT ( 'NONE',  ( 0.000000000000000000, 0.000000000000000000, 2.000000000000000000 ) ) ;
#236 = PRODUCT_DEFINITION ( 'NEZNÁMÝ', '', #100, #109 ) ;
#237 = CIRCLE ( 'NONE', #138, 2.000000000000000000 ) ;
#238 = CARTESIAN_POINT ( 'NONE',  ( 0.000000000000000000, 0.000000000000000000, 200.0000000000000000 ) ) ;
#239 = CALENDAR_DATE ( 2023, 12, 2 ) ;
#240 = EDGE_CURVE ( 'NONE', #28, #219, #237, .T. ) ;
#241 = AXIS2_PLACEMENT_3D ( 'NONE', #82, #226, #115 ) ;
#242 = ORIENTED_EDGE ( 'NONE', *, *, #50, .F. ) ;
#243 = APPROVAL_DATE_TIME ( #135, #183 ) ;
#244 = AXIS2_PLACEMENT_3D ( 'NONE', #210, #19, #101 ) ;
#245 = DIRECTION ( 'NONE',  ( 1.000000000000000000, 0.000000000000000000, 0.000000000000000000 ) ) ;
#246 = CARTESIAN_POINT ( 'NONE',  ( 0.000000000000000000, 0.000000000000000000, 0.000000000000000000 ) ) ;
#247 = ORIENTED_EDGE ( 'NONE', *, *, #155, .T. ) ;
#248 = DIRECTION ( 'NONE',  ( 1.000000000000000000, 0.000000000000000000, 0.000000000000000000 ) ) ;
#249 = CALENDAR_DATE ( 2023, 12, 2 ) ;
#250 = ORIENTED_EDGE ( 'NONE', *, *, #131, .T. ) ;
#251 = PLANE ( 'NONE',  #241 ) ;
#252 = CARTESIAN_POINT ( 'NONE',  ( 1.000000000000000000, 1.224646799147353207E-16, 2.000000000000000000 ) ) ;
#253 = ORIENTED_EDGE ( 'NONE', *, *, #153, .T. ) ;
#254 = LINE ( 'NONE', #30, #188 ) ;
#255 = DIRECTION ( 'NONE',  ( -1.000000000000000000, 0.000000000000000000, 0.000000000000000000 ) ) ;
ENDSEC;
END-ISO-10303-21;
