ISO-10303-21;
HEADER;
FILE_DESCRIPTION (( 'STEP AP203' ),
    '1' );
FILE_NAME ('6642.STEP',
    '2022-07-07T12:20:45',
    ( '' ),
    ( '' ),
    'SwSTEP 2.0',
    'SolidWorks 2019',
    '' );
FILE_SCHEMA (( 'CONFIG_CONTROL_DESIGN' ));
ENDSEC;

DATA;
#1 = DIRECTION ( 'NONE',  ( 1.000000000000000000, 0.000000000000000000, 0.000000000000000000 ) ) ;
#2 = CYLINDRICAL_SURFACE ( 'NONE', #232, 11.00000000000000000 ) ;
#3 = DIRECTION ( 'NONE',  ( 1.000000000000000000, 0.000000000000000000, 0.000000000000000000 ) ) ;
#4 = CIRCLE ( 'NONE', #204, 11.00000000000000000 ) ;
#5 = DIRECTION ( 'NONE',  ( 1.000000000000000000, 0.000000000000000000, 0.000000000000000000 ) ) ;
#6 = CALENDAR_DATE ( 2022, 7, 7 ) ;
#7 = PERSON_AND_ORGANIZATION_ROLE ( 'design_supplier' ) ;
#8 = APPLICATION_PROTOCOL_DEFINITION ( 'international standard', 'config_control_design', 1994, #101 ) ;
#9 = AXIS2_PLACEMENT_3D ( 'NONE', #220, #122, #3 ) ;
#10 = APPROVAL_PERSON_ORGANIZATION ( #202, #163, #59 ) ;
#11 = AXIS2_PLACEMENT_3D ( 'NONE', #73, #103, #5 ) ;
#12 = ADVANCED_FACE ( 'NONE', ( #21, #261 ), #302, .T. ) ;
#13 = DIRECTION ( 'NONE',  ( -0.000000000000000000, -0.000000000000000000, -1.000000000000000000 ) ) ;
#14 = ORIENTED_EDGE ( 'NONE', *, *, #98, .T. ) ;
#15 = PERSON ( 'NEURÈENÝ', 'NEURÈENÝ', 'NEURÈENÝ', ('NEURÈENÝ'), ('NEURÈENÝ'), ('NEURÈENÝ') ) ;
#16 = DIRECTION ( 'NONE',  ( 0.000000000000000000, 0.000000000000000000, 1.000000000000000000 ) ) ;
#17 = ORIENTED_EDGE ( 'NONE', *, *, #177, .F. ) ;
#18 = DIRECTION ( 'NONE',  ( 0.000000000000000000, 0.000000000000000000, 1.000000000000000000 ) ) ;
#19 = CLOSED_SHELL ( 'NONE', ( #278, #88, #217, #140, #12, #272, #27, #77, #213 ) ) ;
#20 = APPROVAL_PERSON_ORGANIZATION ( #224, #82, #109 ) ;
#21 = FACE_BOUND ( 'NONE', #180, .T. ) ;
#22 = CYLINDRICAL_SURFACE ( 'NONE', #28, 8.000000000000000000 ) ;
#23 = AXIS2_PLACEMENT_3D ( 'NONE', #270, #292, #1 ) ;
#24 = DIRECTION ( 'NONE',  ( -0.000000000000000000, -0.000000000000000000, -1.000000000000000000 ) ) ;
#25 = FACE_OUTER_BOUND ( 'NONE', #164, .T. ) ;
#26 = CARTESIAN_POINT ( 'NONE',  ( 0.000000000000000000, 0.000000000000000000, 207.0000000000000284 ) ) ;
#27 = ADVANCED_FACE ( 'NONE', ( #39 ), #284, .T. ) ;
#28 = AXIS2_PLACEMENT_3D ( 'NONE', #65, #114, #207 ) ;
#29 = APPROVAL_DATE_TIME ( #175, #121 ) ;
#30 = TOROIDAL_SURFACE ( 'NONE', #44, 8.200000000000001066, 0.2000000000000000111 ) ;
#31 = CALENDAR_DATE ( 2022, 7, 7 ) ;
#32 = CALENDAR_DATE ( 2022, 7, 7 ) ;
#33 = EDGE_CURVE ( 'NONE', #183, #262, #307, .T. ) ;
#34 = CALENDAR_DATE ( 2022, 7, 7 ) ;
#35 = ADVANCED_BREP_SHAPE_REPRESENTATION ( '6642', ( #289, #152 ), #110 ) ;
#36 = DIRECTION ( 'NONE',  ( -1.000000000000000000, 1.224646799147353207E-16, 0.000000000000000000 ) ) ;
#37 = DESIGN_CONTEXT ( 'detailed design', #101, 'design' ) ;
#38 = LOCAL_TIME ( 14, 20, 45.00000000000000000, #81 ) ;
#39 = FACE_OUTER_BOUND ( 'NONE', #135, .T. ) ;
#40 = EDGE_LOOP ( 'NONE', ( #92, #277 ) ) ;
#41 = DIRECTION ( 'NONE',  ( -0.000000000000000000, -0.000000000000000000, -1.000000000000000000 ) ) ;
#42 = CARTESIAN_POINT ( 'NONE',  ( 0.000000000000000000, 0.000000000000000000, 7.000000000000000000 ) ) ;
#43 = AXIS2_PLACEMENT_3D ( 'NONE', #211, #61, #36 ) ;
#44 = AXIS2_PLACEMENT_3D ( 'NONE', #102, #171, #74 ) ;
#45 = CARTESIAN_POINT ( 'NONE',  ( 0.000000000000000000, 0.000000000000000000, 7.200000000000011724 ) ) ;
#46 =( LENGTH_UNIT ( ) NAMED_UNIT ( * ) SI_UNIT ( .MILLI., .METRE. ) );
#47 = CC_DESIGN_PERSON_AND_ORGANIZATION_ASSIGNMENT ( #293, #107, ( #205 ) ) ;
#48 = CARTESIAN_POINT ( 'NONE',  ( 0.000000000000000000, 0.000000000000000000, 7.000000000000000000 ) ) ;
#49 = CIRCLE ( 'NONE', #75, 8.200000000000001066 ) ;
#50 = DIRECTION ( 'NONE',  ( -0.000000000000000000, -0.000000000000000000, -1.000000000000000000 ) ) ;
#51 = CARTESIAN_POINT ( 'NONE',  ( -11.00000000000000000, 0.000000000000000000, 7.000000000000000000 ) ) ;
#52 = EDGE_CURVE ( 'NONE', #182, #254, #255, .T. ) ;
#53 = CARTESIAN_POINT ( 'NONE',  ( 0.000000000000000000, 0.000000000000000000, 7.200000000000011724 ) ) ;
#54 = VECTOR ( 'NONE', #41, 1000.000000000000000 ) ;
#55 = DATE_AND_TIME ( #31, #233 ) ;
#56 = COORDINATED_UNIVERSAL_TIME_OFFSET ( 1, 0, .AHEAD. ) ;
#57 = PERSON_AND_ORGANIZATION_ROLE ( 'creator' ) ;
#58 = AXIS2_PLACEMENT_3D ( 'NONE', #269, #266, #222 ) ;
#59 = APPROVAL_ROLE ( '' ) ;
#60 = PRODUCT_RELATED_PRODUCT_CATEGORY ( 'detail', '', ( #294 ) ) ;
#61 = DIRECTION ( 'NONE',  ( 1.224646799147353207E-16, 1.000000000000000000, -0.000000000000000000 ) ) ;
#62 = ORIENTED_EDGE ( 'NONE', *, *, #157, .T. ) ;
#63 = CIRCLE ( 'NONE', #43, 0.2000000000000005107 ) ;
#64 = ORIENTED_EDGE ( 'NONE', *, *, #206, .T. ) ;
#65 = CARTESIAN_POINT ( 'NONE',  ( 0.000000000000000000, 0.000000000000000000, 207.0000000000000284 ) ) ;
#66 = EDGE_LOOP ( 'NONE', ( #90, #134 ) ) ;
#67 = EDGE_CURVE ( 'NONE', #97, #254, #194, .T. ) ;
#68 = ORIENTED_EDGE ( 'NONE', *, *, #283, .T. ) ;
#69 = ORIENTED_EDGE ( 'NONE', *, *, #173, .T. ) ;
#70 = CARTESIAN_POINT ( 'NONE',  ( 0.000000000000000000, 0.000000000000000000, 207.0000000000000284 ) ) ;
#71 = CC_DESIGN_SECURITY_CLASSIFICATION ( #179, ( #205 ) ) ;
#72 = FACE_OUTER_BOUND ( 'NONE', #161, .T. ) ;
#73 = CARTESIAN_POINT ( 'NONE',  ( 0.000000000000000000, 0.000000000000000000, 207.0000000000000284 ) ) ;
#74 = DIRECTION ( 'NONE',  ( 1.000000000000000000, 0.000000000000000000, 0.000000000000000000 ) ) ;
#75 = AXIS2_PLACEMENT_3D ( 'NONE', #48, #142, #244 ) ;
#76 = CARTESIAN_POINT ( 'NONE',  ( 11.00000000000000000, 1.347111479062088405E-15, 0.000000000000000000 ) ) ;
#77 = ADVANCED_FACE ( 'NONE', ( #242 ), #236, .T. ) ;
#78 = DIRECTION ( 'NONE',  ( 0.000000000000000000, 0.000000000000000000, 1.000000000000000000 ) ) ;
#79 = PERSON_AND_ORGANIZATION ( #15, #240 ) ;
#80 = AXIS2_PLACEMENT_3D ( 'NONE', #95, #172, #145 ) ;
#81 = COORDINATED_UNIVERSAL_TIME_OFFSET ( 1, 0, .AHEAD. ) ;
#82 = APPROVAL ( #178, 'NEURÈENÝ' ) ;
#83 = APPLICATION_CONTEXT ( 'configuration controlled 3d designs of mechanical parts and assemblies' ) ;
#84 = PERSON_AND_ORGANIZATION ( #15, #240 ) ;
#85 = DIRECTION ( 'NONE',  ( 1.000000000000000000, 0.000000000000000000, 0.000000000000000000 ) ) ;
#86 = ORIENTED_EDGE ( 'NONE', *, *, #33, .F. ) ;
#87 = COORDINATED_UNIVERSAL_TIME_OFFSET ( 1, 0, .AHEAD. ) ;
#88 = ADVANCED_FACE ( 'NONE', ( #116 ), #22, .T. ) ;
#89 = AXIS2_PLACEMENT_3D ( 'NONE', #162, #136, #304 ) ;
#90 = ORIENTED_EDGE ( 'NONE', *, *, #173, .F. ) ;
#91 = DIRECTION ( 'NONE',  ( 0.000000000000000000, 0.000000000000000000, 1.000000000000000000 ) ) ;
#92 = ORIENTED_EDGE ( 'NONE', *, *, #133, .T. ) ;
#93 = DIRECTION ( 'NONE',  ( -1.000000000000000000, 0.000000000000000000, 0.000000000000000000 ) ) ;
#94 = EDGE_CURVE ( 'NONE', #97, #186, #63, .T. ) ;
#95 = CARTESIAN_POINT ( 'NONE',  ( 0.000000000000000000, 0.000000000000000000, 7.000000000000000000 ) ) ;
#96 = ORIENTED_EDGE ( 'NONE', *, *, #226, .T. ) ;
#97 = VERTEX_POINT ( 'NONE', #131 ) ;
#98 = EDGE_CURVE ( 'NONE', #256, #97, #234, .T. ) ;
#99 = LOCAL_TIME ( 14, 20, 45.00000000000000000, #87 ) ;
#100 = DIRECTION ( 'NONE',  ( 1.000000000000000000, 0.000000000000000000, 0.000000000000000000 ) ) ;
#101 = APPLICATION_CONTEXT ( 'configuration controlled 3d designs of mechanical parts and assemblies' ) ;
#102 = CARTESIAN_POINT ( 'NONE',  ( 0.000000000000000000, 0.000000000000000000, 7.200000000000011724 ) ) ;
#103 = DIRECTION ( 'NONE',  ( 0.000000000000000000, 0.000000000000000000, 1.000000000000000000 ) ) ;
#104 = PRODUCT_DEFINITION ( 'NEZNÁMÝ', '', #205, #37 ) ;
#105 = CARTESIAN_POINT ( 'NONE',  ( 0.000000000000000000, 0.000000000000000000, 7.000000000000000000 ) ) ;
#106 = SHAPE_DEFINITION_REPRESENTATION ( #119, #35 ) ;
#107 = PERSON_AND_ORGANIZATION_ROLE ( 'creator' ) ;
#108 = EDGE_CURVE ( 'NONE', #262, #259, #4, .T. ) ;
#109 = APPROVAL_ROLE ( '' ) ;
#110 =( GEOMETRIC_REPRESENTATION_CONTEXT ( 3 ) GLOBAL_UNCERTAINTY_ASSIGNED_CONTEXT ( ( #301 ) ) GLOBAL_UNIT_ASSIGNED_CONTEXT ( ( #46, #201, #229 ) ) REPRESENTATION_CONTEXT ( 'NONE', 'WORKASPACE' ) );
#111 = APPROVAL_DATE_TIME ( #55, #163 ) ;
#112 = DATE_TIME_ROLE ( 'classification_date' ) ;
#113 = CIRCLE ( 'NONE', #23, 8.000000000000000000 ) ;
#114 = DIRECTION ( 'NONE',  ( -0.000000000000000000, -0.000000000000000000, -1.000000000000000000 ) ) ;
#115 = ORIENTED_EDGE ( 'NONE', *, *, #94, .T. ) ;
#116 = FACE_OUTER_BOUND ( 'NONE', #138, .T. ) ;
#117 = FACE_OUTER_BOUND ( 'NONE', #137, .T. ) ;
#118 = ORIENTED_EDGE ( 'NONE', *, *, #67, .F. ) ;
#119 = PRODUCT_DEFINITION_SHAPE ( 'NONE', 'NONE',  #104 ) ;
#120 = ORIENTED_EDGE ( 'NONE', *, *, #253, .T. ) ;
#121 = APPROVAL ( #197, 'NEURÈENÝ' ) ;
#122 = DIRECTION ( 'NONE',  ( 0.000000000000000000, 0.000000000000000000, 1.000000000000000000 ) ) ;
#123 = CIRCLE ( 'NONE', #58, 0.1999999999999996503 ) ;
#124 = FACE_OUTER_BOUND ( 'NONE', #66, .T. ) ;
#125 = PLANE ( 'NONE',  #169 ) ;
#126 = CARTESIAN_POINT ( 'NONE',  ( 11.00000000000000000, 1.347111479062088405E-15, 7.000000000000000000 ) ) ;
#127 = COORDINATED_UNIVERSAL_TIME_OFFSET ( 1, 0, .AHEAD. ) ;
#128 = COORDINATED_UNIVERSAL_TIME_OFFSET ( 1, 0, .AHEAD. ) ;
#129 = CIRCLE ( 'NONE', #151, 8.000000000000000000 ) ;
#130 = MECHANICAL_CONTEXT ( 'NONE', #83, 'mechanical' ) ;
#131 = CARTESIAN_POINT ( 'NONE',  ( -8.000000000000000000, 0.000000000000000000, 7.200000000000011724 ) ) ;
#132 = LOCAL_TIME ( 14, 20, 45.00000000000000000, #56 ) ;
#133 = EDGE_CURVE ( 'NONE', #156, #183, #223, .T. ) ;
#134 = ORIENTED_EDGE ( 'NONE', *, *, #108, .F. ) ;
#135 = EDGE_LOOP ( 'NONE', ( #276, #17, #14, #281 ) ) ;
#136 = DIRECTION ( 'NONE',  ( 0.000000000000000000, 0.000000000000000000, 1.000000000000000000 ) ) ;
#137 = EDGE_LOOP ( 'NONE', ( #86, #154, #120, #69 ) ) ;
#138 = EDGE_LOOP ( 'NONE', ( #238, #188, #62, #295 ) ) ;
#139 = AXIS2_PLACEMENT_3D ( 'NONE', #45, #18, #141 ) ;
#140 = ADVANCED_FACE ( 'NONE', ( #117 ), #212, .T. ) ;
#141 = DIRECTION ( 'NONE',  ( 1.000000000000000000, 0.000000000000000000, 0.000000000000000000 ) ) ;
#142 = DIRECTION ( 'NONE',  ( -0.000000000000000000, -0.000000000000000000, -1.000000000000000000 ) ) ;
#143 = CARTESIAN_POINT ( 'NONE',  ( -11.00000000000000000, 0.000000000000000000, 7.000000000000000000 ) ) ;
#144 = DIRECTION ( 'NONE',  ( 1.000000000000000000, 0.000000000000000000, -0.000000000000000000 ) ) ;
#145 = DIRECTION ( 'NONE',  ( -1.000000000000000000, 0.000000000000000000, 0.000000000000000000 ) ) ;
#146 = CC_DESIGN_DATE_AND_TIME_ASSIGNMENT ( #271, #112, ( #179 ) ) ;
#147 = AXIS2_PLACEMENT_3D ( 'NONE', #105, #50, #221 ) ;
#148 = APPLICATION_PROTOCOL_DEFINITION ( 'international standard', 'config_control_design', 1994, #83 ) ;
#149 = DIRECTION ( 'NONE',  ( 0.000000000000000000, 0.000000000000000000, 1.000000000000000000 ) ) ;
#150 = PERSON_AND_ORGANIZATION ( #15, #240 ) ;
#151 = AXIS2_PLACEMENT_3D ( 'NONE', #26, #287, #247 ) ;
#152 = AXIS2_PLACEMENT_3D ( 'NONE', #153, #149, #85 ) ;
#153 = CARTESIAN_POINT ( 'NONE',  ( 0.000000000000000000, 0.000000000000000000, 0.000000000000000000 ) ) ;
#154 = ORIENTED_EDGE ( 'NONE', *, *, #133, .F. ) ;
#155 = CALENDAR_DATE ( 2022, 7, 7 ) ;
#156 = VERTEX_POINT ( 'NONE', #143 ) ;
#157 = EDGE_CURVE ( 'NONE', #254, #97, #113, .T. ) ;
#158 = ORIENTED_EDGE ( 'NONE', *, *, #157, .F. ) ;
#159 = AXIS2_PLACEMENT_3D ( 'NONE', #70, #241, #93 ) ;
#160 = CARTESIAN_POINT ( 'NONE',  ( 8.000000000000000000, 9.797174393178825657E-16, 207.0000000000000284 ) ) ;
#161 = EDGE_LOOP ( 'NONE', ( #118, #115, #214, #305 ) ) ;
#162 = CARTESIAN_POINT ( 'NONE',  ( 0.000000000000000000, 0.000000000000000000, 7.000000000000000000 ) ) ;
#163 = APPROVAL ( #250, 'NEURÈENÝ' ) ;
#164 = EDGE_LOOP ( 'NONE', ( #210, #279, #299, #282 ) ) ;
#165 = CARTESIAN_POINT ( 'NONE',  ( 11.00000000000000000, 1.347111479062088405E-15, 7.000000000000000000 ) ) ;
#166 = DIRECTION ( 'NONE',  ( -1.000000000000000000, 0.000000000000000000, 0.000000000000000000 ) ) ;
#167 = CARTESIAN_POINT ( 'NONE',  ( 0.000000000000000000, 0.000000000000000000, 7.000000000000000000 ) ) ;
#168 = CARTESIAN_POINT ( 'NONE',  ( 8.000000000000000000, 9.797174393178825657E-16, 7.200000000000011724 ) ) ;
#169 = AXIS2_PLACEMENT_3D ( 'NONE', #268, #192, #144 ) ;
#170 = APPROVAL_PERSON_ORGANIZATION ( #296, #121, #275 ) ;
#171 = DIRECTION ( 'NONE',  ( 0.000000000000000000, 0.000000000000000000, 1.000000000000000000 ) ) ;
#172 = DIRECTION ( 'NONE',  ( -0.000000000000000000, -0.000000000000000000, -1.000000000000000000 ) ) ;
#173 = EDGE_CURVE ( 'NONE', #259, #262, #245, .T. ) ;
#174 = CC_DESIGN_APPROVAL ( #121, ( #179 ) ) ;
#175 = DATE_AND_TIME ( #155, #38 ) ;
#176 = SECURITY_CLASSIFICATION_LEVEL ( 'unclassified' ) ;
#177 = EDGE_CURVE ( 'NONE', #256, #182, #129, .T. ) ;
#178 = APPROVAL_STATUS ( 'not_yet_approved' ) ;
#179 = SECURITY_CLASSIFICATION ( '', '', #176 ) ;
#180 = EDGE_LOOP ( 'NONE', ( #96, #68 ) ) ;
#181 = EDGE_CURVE ( 'NONE', #183, #156, #285, .T. ) ;
#182 = VERTEX_POINT ( 'NONE', #189 ) ;
#183 = VERTEX_POINT ( 'NONE', #126 ) ;
#184 = AXIS2_PLACEMENT_3D ( 'NONE', #167, #191, #100 ) ;
#185 = CARTESIAN_POINT ( 'NONE',  ( -8.000000000000000000, 0.000000000000000000, 207.0000000000000284 ) ) ;
#186 = VERTEX_POINT ( 'NONE', #291 ) ;
#187 = VERTEX_POINT ( 'NONE', #267 ) ;
#188 = ORIENTED_EDGE ( 'NONE', *, *, #52, .T. ) ;
#189 = CARTESIAN_POINT ( 'NONE',  ( 8.000000000000000000, 9.797174393178825657E-16, 207.0000000000000284 ) ) ;
#190 = TOROIDAL_SURFACE ( 'NONE', #198, 8.200000000000001066, 0.2000000000000000111 ) ;
#191 = DIRECTION ( 'NONE',  ( 0.000000000000000000, 0.000000000000000000, 1.000000000000000000 ) ) ;
#192 = DIRECTION ( 'NONE',  ( 0.000000000000000000, 0.000000000000000000, 1.000000000000000000 ) ) ;
#193 = DIRECTION ( 'NONE',  ( -0.000000000000000000, -0.000000000000000000, -1.000000000000000000 ) ) ;
#194 = CIRCLE ( 'NONE', #139, 8.000000000000000000 ) ;
#195 = CC_DESIGN_APPROVAL ( #82, ( #104 ) ) ;
#196 = CC_DESIGN_PERSON_AND_ORGANIZATION_ASSIGNMENT ( #251, #57, ( #104 ) ) ;
#197 = APPROVAL_STATUS ( 'not_yet_approved' ) ;
#198 = AXIS2_PLACEMENT_3D ( 'NONE', #53, #78, #286 ) ;
#199 = DATE_AND_TIME ( #6, #99 ) ;
#200 = CC_DESIGN_PERSON_AND_ORGANIZATION_ASSIGNMENT ( #150, #7, ( #205 ) ) ;
#201 =( NAMED_UNIT ( * ) PLANE_ANGLE_UNIT ( ) SI_UNIT ( $, .RADIAN. ) );
#202 = PERSON_AND_ORGANIZATION ( #15, #240 ) ;
#203 = EDGE_LOOP ( 'NONE', ( #263, #64 ) ) ;
#204 = AXIS2_PLACEMENT_3D ( 'NONE', #209, #280, #300 ) ;
#205 = PRODUCT_DEFINITION_FORMATION_WITH_SPECIFIED_SOURCE ( 'LIBOVOLNÝ', '', #294, .NOT_KNOWN. ) ;
#206 = EDGE_CURVE ( 'NONE', #182, #256, #243, .T. ) ;
#207 = DIRECTION ( 'NONE',  ( -1.000000000000000000, 0.000000000000000000, 0.000000000000000000 ) ) ;
#208 = EDGE_LOOP ( 'NONE', ( #297, #158, #237, #235 ) ) ;
#209 = CARTESIAN_POINT ( 'NONE',  ( 0.000000000000000000, 0.000000000000000000, 0.000000000000000000 ) ) ;
#210 = ORIENTED_EDGE ( 'NONE', *, *, #181, .F. ) ;
#211 = CARTESIAN_POINT ( 'NONE',  ( -8.200000000000001066, 1.004210375300829674E-15, 7.200000000000011724 ) ) ;
#212 = CYLINDRICAL_SURFACE ( 'NONE', #80, 11.00000000000000000 ) ;
#213 = ADVANCED_FACE ( 'NONE', ( #216 ), #190, .F. ) ;
#214 = ORIENTED_EDGE ( 'NONE', *, *, #226, .F. ) ;
#215 = DIRECTION ( 'NONE',  ( 1.000000000000000000, 0.000000000000000000, -0.000000000000000000 ) ) ;
#216 = FACE_OUTER_BOUND ( 'NONE', #208, .T. ) ;
#217 = ADVANCED_FACE ( 'NONE', ( #25 ), #2, .T. ) ;
#218 = CARTESIAN_POINT ( 'NONE',  ( 0.000000000000000000, 0.000000000000000000, 7.000000000000000000 ) ) ;
#219 = AXIS2_PLACEMENT_3D ( 'NONE', #258, #16, #298 ) ;
#220 = CARTESIAN_POINT ( 'NONE',  ( 0.000000000000000000, 0.000000000000000000, 0.000000000000000000 ) ) ;
#221 = DIRECTION ( 'NONE',  ( 1.000000000000000000, 0.000000000000000000, 0.000000000000000000 ) ) ;
#222 = DIRECTION ( 'NONE',  ( 0.000000000000000000, 0.000000000000000000, -1.000000000000000000 ) ) ;
#223 = CIRCLE ( 'NONE', #89, 11.00000000000000000 ) ;
#224 = PERSON_AND_ORGANIZATION ( #15, #240 ) ;
#225 = APPROVAL_DATE_TIME ( #199, #82 ) ;
#226 = EDGE_CURVE ( 'NONE', #187, #186, #49, .T. ) ;
#227 = VECTOR ( 'NONE', #24, 1000.000000000000000 ) ;
#228 = LOCAL_TIME ( 14, 20, 45.00000000000000000, #127 ) ;
#229 =( NAMED_UNIT ( * ) SI_UNIT ( $, .STERADIAN. ) SOLID_ANGLE_UNIT ( ) );
#230 = DATE_TIME_ROLE ( 'creation_date' ) ;
#231 = CC_DESIGN_PERSON_AND_ORGANIZATION_ASSIGNMENT ( #79, #273, ( #179 ) ) ;
#232 = AXIS2_PLACEMENT_3D ( 'NONE', #218, #193, #166 ) ;
#233 = LOCAL_TIME ( 14, 20, 45.00000000000000000, #128 ) ;
#234 = LINE ( 'NONE', #185, #290 ) ;
#235 = ORIENTED_EDGE ( 'NONE', *, *, #283, .F. ) ;
#236 = PLANE ( 'NONE',  #219 ) ;
#237 = ORIENTED_EDGE ( 'NONE', *, *, #306, .T. ) ;
#238 = ORIENTED_EDGE ( 'NONE', *, *, #206, .F. ) ;
#239 = AXIS2_PLACEMENT_3D ( 'NONE', #42, #91, #215 ) ;
#240 = ORGANIZATION ( 'NEURÈENÝ', 'NEURÈENÝ', '' ) ;
#241 = DIRECTION ( 'NONE',  ( -0.000000000000000000, -0.000000000000000000, -1.000000000000000000 ) ) ;
#242 = FACE_OUTER_BOUND ( 'NONE', #203, .T. ) ;
#243 = CIRCLE ( 'NONE', #11, 8.000000000000000000 ) ;
#244 = DIRECTION ( 'NONE',  ( 1.000000000000000000, 0.000000000000000000, 0.000000000000000000 ) ) ;
#245 = CIRCLE ( 'NONE', #9, 11.00000000000000000 ) ;
#246 = CARTESIAN_POINT ( 'NONE',  ( -8.000000000000000000, 0.000000000000000000, 207.0000000000000284 ) ) ;
#247 = DIRECTION ( 'NONE',  ( 1.000000000000000000, 0.000000000000000000, 0.000000000000000000 ) ) ;
#248 = CC_DESIGN_PERSON_AND_ORGANIZATION_ASSIGNMENT ( #84, #274, ( #294 ) ) ;
#249 = LINE ( 'NONE', #51, #227 ) ;
#250 = APPROVAL_STATUS ( 'not_yet_approved' ) ;
#251 = PERSON_AND_ORGANIZATION ( #15, #240 ) ;
#252 = DATE_AND_TIME ( #32, #228 ) ;
#253 = EDGE_CURVE ( 'NONE', #156, #259, #249, .T. ) ;
#254 = VERTEX_POINT ( 'NONE', #168 ) ;
#255 = LINE ( 'NONE', #160, #54 ) ;
#256 = VERTEX_POINT ( 'NONE', #246 ) ;
#257 = CC_DESIGN_APPROVAL ( #163, ( #205 ) ) ;
#258 = CARTESIAN_POINT ( 'NONE',  ( 0.000000000000000000, 0.000000000000000000, 207.0000000000000284 ) ) ;
#259 = VERTEX_POINT ( 'NONE', #288 ) ;
#260 = CC_DESIGN_DATE_AND_TIME_ASSIGNMENT ( #252, #230, ( #104 ) ) ;
#261 = FACE_OUTER_BOUND ( 'NONE', #40, .T. ) ;
#262 = VERTEX_POINT ( 'NONE', #76 ) ;
#263 = ORIENTED_EDGE ( 'NONE', *, *, #177, .T. ) ;
#264 = VECTOR ( 'NONE', #265, 1000.000000000000000 ) ;
#265 = DIRECTION ( 'NONE',  ( -0.000000000000000000, -0.000000000000000000, -1.000000000000000000 ) ) ;
#266 = DIRECTION ( 'NONE',  ( 0.000000000000000000, -1.000000000000000000, 0.000000000000000000 ) ) ;
#267 = CARTESIAN_POINT ( 'NONE',  ( 8.200000000000001066, 0.000000000000000000, 7.000000000000006217 ) ) ;
#268 = CARTESIAN_POINT ( 'NONE',  ( 0.000000000000000000, 0.000000000000000000, 0.000000000000000000 ) ) ;
#269 = CARTESIAN_POINT ( 'NONE',  ( 8.200000000000001066, 0.000000000000000000, 7.200000000000011724 ) ) ;
#270 = CARTESIAN_POINT ( 'NONE',  ( 0.000000000000000000, 0.000000000000000000, 7.200000000000011724 ) ) ;
#271 = DATE_AND_TIME ( #34, #132 ) ;
#272 = ADVANCED_FACE ( 'NONE', ( #124 ), #125, .F. ) ;
#273 = PERSON_AND_ORGANIZATION_ROLE ( 'classification_officer' ) ;
#274 = PERSON_AND_ORGANIZATION_ROLE ( 'design_owner' ) ;
#275 = APPROVAL_ROLE ( '' ) ;
#276 = ORIENTED_EDGE ( 'NONE', *, *, #52, .F. ) ;
#277 = ORIENTED_EDGE ( 'NONE', *, *, #181, .T. ) ;
#278 = ADVANCED_FACE ( 'NONE', ( #72 ), #30, .F. ) ;
#279 = ORIENTED_EDGE ( 'NONE', *, *, #33, .T. ) ;
#280 = DIRECTION ( 'NONE',  ( 0.000000000000000000, 0.000000000000000000, 1.000000000000000000 ) ) ;
#281 = ORIENTED_EDGE ( 'NONE', *, *, #67, .T. ) ;
#282 = ORIENTED_EDGE ( 'NONE', *, *, #253, .F. ) ;
#283 = EDGE_CURVE ( 'NONE', #186, #187, #303, .T. ) ;
#284 = CYLINDRICAL_SURFACE ( 'NONE', #159, 8.000000000000000000 ) ;
#285 = CIRCLE ( 'NONE', #184, 11.00000000000000000 ) ;
#286 = DIRECTION ( 'NONE',  ( 1.000000000000000000, 0.000000000000000000, 0.000000000000000000 ) ) ;
#287 = DIRECTION ( 'NONE',  ( 0.000000000000000000, 0.000000000000000000, 1.000000000000000000 ) ) ;
#288 = CARTESIAN_POINT ( 'NONE',  ( -11.00000000000000000, 0.000000000000000000, 0.000000000000000000 ) ) ;
#289 = MANIFOLD_SOLID_BREP ( 'Zaoblit1', #19 ) ;
#290 = VECTOR ( 'NONE', #13, 1000.000000000000000 ) ;
#291 = CARTESIAN_POINT ( 'NONE',  ( -8.200000000000001066, 1.004210375300829674E-15, 7.000000000000006217 ) ) ;
#292 = DIRECTION ( 'NONE',  ( 0.000000000000000000, 0.000000000000000000, 1.000000000000000000 ) ) ;
#293 = PERSON_AND_ORGANIZATION ( #15, #240 ) ;
#294 = PRODUCT ( '6642', '6642', '', ( #130 ) ) ;
#295 = ORIENTED_EDGE ( 'NONE', *, *, #98, .F. ) ;
#296 = PERSON_AND_ORGANIZATION ( #15, #240 ) ;
#297 = ORIENTED_EDGE ( 'NONE', *, *, #94, .F. ) ;
#298 = DIRECTION ( 'NONE',  ( 1.000000000000000000, 0.000000000000000000, -0.000000000000000000 ) ) ;
#299 = ORIENTED_EDGE ( 'NONE', *, *, #108, .T. ) ;
#300 = DIRECTION ( 'NONE',  ( 1.000000000000000000, 0.000000000000000000, 0.000000000000000000 ) ) ;
#301 = UNCERTAINTY_MEASURE_WITH_UNIT (LENGTH_MEASURE( 1.000000000000000082E-05 ), #46, 'distance_accuracy_value', 'NONE');
#302 = PLANE ( 'NONE',  #239 ) ;
#303 = CIRCLE ( 'NONE', #147, 8.200000000000001066 ) ;
#304 = DIRECTION ( 'NONE',  ( 1.000000000000000000, 0.000000000000000000, 0.000000000000000000 ) ) ;
#305 = ORIENTED_EDGE ( 'NONE', *, *, #306, .F. ) ;
#306 = EDGE_CURVE ( 'NONE', #254, #187, #123, .T. ) ;
#307 = LINE ( 'NONE', #165, #264 ) ;
ENDSEC;
END-ISO-10303-21;
