ISO-10303-21;
HEADER;
FILE_DESCRIPTION (( 'STEP AP203' ),
    '1' );
FILE_NAME ('39db.STEP',
    '2022-07-07T12:30:16',
    ( '' ),
    ( '' ),
    'SwSTEP 2.0',
    'SolidWorks 2019',
    '' );
FILE_SCHEMA (( 'CONFIG_CONTROL_DESIGN' ));
ENDSEC;

DATA;
#1 = CARTESIAN_POINT ( 'NONE',  ( 0.000000000000000000, 0.000000000000000000, 5.199999999999996625 ) ) ;
#2 = AXIS2_PLACEMENT_3D ( 'NONE', #143, #97, #118 ) ;
#3 = CARTESIAN_POINT ( 'NONE',  ( -4.699999999999999289, 5.755839955992558669E-16, 5.199999999999996625 ) ) ;
#4 = ADVANCED_FACE ( 'NONE', ( #303 ), #238, .T. ) ;
#5 = DIRECTION ( 'NONE',  ( 0.000000000000000000, 0.000000000000000000, 1.000000000000000000 ) ) ;
#6 = AXIS2_PLACEMENT_3D ( 'NONE', #117, #95, #42 ) ;
#7 = DATE_AND_TIME ( #129, #291 ) ;
#8 = CC_DESIGN_PERSON_AND_ORGANIZATION_ASSIGNMENT ( #210, #204, ( #50 ) ) ;
#9 = CARTESIAN_POINT ( 'NONE',  ( 0.000000000000000000, 0.000000000000000000, 5.199999999999996625 ) ) ;
#10 = DATE_AND_TIME ( #163, #217 ) ;
#11 = CIRCLE ( 'NONE', #292, 4.699999999999999289 ) ;
#12 = ORIENTED_EDGE ( 'NONE', *, *, #218, .F. ) ;
#13 = ADVANCED_FACE ( 'NONE', ( #301 ), #193, .T. ) ;
#14 = APPROVAL_DATE_TIME ( #87, #267 ) ;
#15 = CALENDAR_DATE ( 2022, 7, 7 ) ;
#16 = PRODUCT_DEFINITION_SHAPE ( 'NONE', 'NONE',  #94 ) ;
#17 = ORIENTED_EDGE ( 'NONE', *, *, #155, .T. ) ;
#18 = ORIENTED_EDGE ( 'NONE', *, *, #295, .F. ) ;
#19 = ORIENTED_EDGE ( 'NONE', *, *, #69, .T. ) ;
#20 = EDGE_CURVE ( 'NONE', #277, #206, #280, .T. ) ;
#21 = DIRECTION ( 'NONE',  ( 1.000000000000000000, 0.000000000000000000, 0.000000000000000000 ) ) ;
#22 = PRODUCT_RELATED_PRODUCT_CATEGORY ( 'detail', '', ( #60 ) ) ;
#23 = PLANE ( 'NONE',  #184 ) ;
#24 = VECTOR ( 'NONE', #105, 1000.000000000000000 ) ;
#25 = CARTESIAN_POINT ( 'NONE',  ( 0.000000000000000000, 0.000000000000000000, 5.000000000000000000 ) ) ;
#26 = CARTESIAN_POINT ( 'NONE',  ( 0.000000000000000000, 0.000000000000000000, 130.0000000000000000 ) ) ;
#27 = CARTESIAN_POINT ( 'NONE',  ( 0.000000000000000000, 0.000000000000000000, 5.000000000000000000 ) ) ;
#28 = AXIS2_PLACEMENT_3D ( 'NONE', #1, #289, #29 ) ;
#29 = DIRECTION ( 'NONE',  ( 1.000000000000000000, 0.000000000000000000, 0.000000000000000000 ) ) ;
#30 = CIRCLE ( 'NONE', #72, 7.000000000000000000 ) ;
#31 = DIRECTION ( 'NONE',  ( -1.000000000000000000, 0.000000000000000000, 0.000000000000000000 ) ) ;
#32 = LINE ( 'NONE', #275, #84 ) ;
#33 = CC_DESIGN_PERSON_AND_ORGANIZATION_ASSIGNMENT ( #135, #61, ( #94 ) ) ;
#34 = MANIFOLD_SOLID_BREP ( 'Zaoblit1', #96 ) ;
#35 = COORDINATED_UNIVERSAL_TIME_OFFSET ( 1, 0, .AHEAD. ) ;
#36 = APPROVAL_DATE_TIME ( #254, #242 ) ;
#37 = PERSON_AND_ORGANIZATION ( #255, #46 ) ;
#38 = CIRCLE ( 'NONE', #112, 4.500000000000000000 ) ;
#39 = EDGE_LOOP ( 'NONE', ( #299, #296, #64, #100 ) ) ;
#40 = VECTOR ( 'NONE', #177, 1000.000000000000000 ) ;
#41 = EDGE_LOOP ( 'NONE', ( #161, #281 ) ) ;
#42 = DIRECTION ( 'NONE',  ( -1.000000000000000000, 0.000000000000000000, 0.000000000000000000 ) ) ;
#43 = CIRCLE ( 'NONE', #88, 0.1999999999999996503 ) ;
#44 = DIRECTION ( 'NONE',  ( 0.000000000000000000, 0.000000000000000000, 1.000000000000000000 ) ) ;
#45 = ORIENTED_EDGE ( 'NONE', *, *, #113, .T. ) ;
#46 = ORGANIZATION ( 'NEURÈENÝ', 'NEURÈENÝ', '' ) ;
#47 = CYLINDRICAL_SURFACE ( 'NONE', #221, 7.000000000000000000 ) ;
#48 = CARTESIAN_POINT ( 'NONE',  ( 0.000000000000000000, 0.000000000000000000, 0.000000000000000000 ) ) ;
#49 = DIRECTION ( 'NONE',  ( -1.000000000000000000, 1.224646799147353454E-16, 0.000000000000000000 ) ) ;
#50 = PRODUCT_DEFINITION_FORMATION_WITH_SPECIFIED_SOURCE ( 'LIBOVOLNÝ', '', #60, .NOT_KNOWN. ) ;
#51 = DIRECTION ( 'NONE',  ( 1.000000000000000000, 0.000000000000000000, -0.000000000000000000 ) ) ;
#52 = CARTESIAN_POINT ( 'NONE',  ( 7.000000000000000000, 8.572527594031473190E-16, 5.000000000000000000 ) ) ;
#53 = EDGE_CURVE ( 'NONE', #141, #298, #150, .T. ) ;
#54 = APPLICATION_PROTOCOL_DEFINITION ( 'international standard', 'config_control_design', 1994, #89 ) ;
#55 = CC_DESIGN_PERSON_AND_ORGANIZATION_ASSIGNMENT ( #83, #181, ( #50 ) ) ;
#56 = SECURITY_CLASSIFICATION ( '', '', #258 ) ;
#57 = DIRECTION ( 'NONE',  ( 1.000000000000000000, 0.000000000000000000, 0.000000000000000000 ) ) ;
#58 = ORIENTED_EDGE ( 'NONE', *, *, #199, .T. ) ;
#59 = PERSON_AND_ORGANIZATION ( #255, #46 ) ;
#60 = PRODUCT ( '39db', '39db', '', ( #133 ) ) ;
#61 = PERSON_AND_ORGANIZATION_ROLE ( 'creator' ) ;
#62 = CIRCLE ( 'NONE', #92, 7.000000000000000000 ) ;
#63 = DIRECTION ( 'NONE',  ( 1.000000000000000000, 0.000000000000000000, 0.000000000000000000 ) ) ;
#64 = ORIENTED_EDGE ( 'NONE', *, *, #218, .T. ) ;
#65 = ORIENTED_EDGE ( 'NONE', *, *, #171, .F. ) ;
#66 = APPROVAL ( #139, 'NEURÈENÝ' ) ;
#67 = ORIENTED_EDGE ( 'NONE', *, *, #120, .T. ) ;
#68 = DIRECTION ( 'NONE',  ( 1.000000000000000000, 0.000000000000000000, 0.000000000000000000 ) ) ;
#69 = EDGE_CURVE ( 'NONE', #236, #131, #178, .T. ) ;
#70 = ORIENTED_EDGE ( 'NONE', *, *, #199, .F. ) ;
#71 = APPLICATION_CONTEXT ( 'configuration controlled 3d designs of mechanical parts and assemblies' ) ;
#72 = AXIS2_PLACEMENT_3D ( 'NONE', #48, #5, #198 ) ;
#73 = DIRECTION ( 'NONE',  ( 1.000000000000000000, 0.000000000000000000, 0.000000000000000000 ) ) ;
#74 = CARTESIAN_POINT ( 'NONE',  ( 4.699999999999999289, 0.000000000000000000, 4.999999999999998224 ) ) ;
#75 = CC_DESIGN_APPROVAL ( #267, ( #94 ) ) ;
#76 = PLANE ( 'NONE',  #156 ) ;
#77 = EDGE_CURVE ( 'NONE', #166, #142, #38, .T. ) ;
#78 = CARTESIAN_POINT ( 'NONE',  ( 0.000000000000000000, 0.000000000000000000, 5.000000000000000000 ) ) ;
#79 = CC_DESIGN_PERSON_AND_ORGANIZATION_ASSIGNMENT ( #37, #140, ( #56 ) ) ;
#80 = DIRECTION ( 'NONE',  ( 0.000000000000000000, 0.000000000000000000, 1.000000000000000000 ) ) ;
#81 = TOROIDAL_SURFACE ( 'NONE', #28, 4.699999999999999289, 0.2000000000000000111 ) ;
#82 = FACE_OUTER_BOUND ( 'NONE', #239, .T. ) ;
#83 = PERSON_AND_ORGANIZATION ( #255, #46 ) ;
#84 = VECTOR ( 'NONE', #205, 1000.000000000000000 ) ;
#85 = PERSON_AND_ORGANIZATION_ROLE ( 'design_owner' ) ;
#86 = DATE_TIME_ROLE ( 'classification_date' ) ;
#87 = DATE_AND_TIME ( #158, #121 ) ;
#88 = AXIS2_PLACEMENT_3D ( 'NONE', #3, #201, #49 ) ;
#89 = APPLICATION_CONTEXT ( 'configuration controlled 3d designs of mechanical parts and assemblies' ) ;
#90 = APPROVAL_ROLE ( '' ) ;
#91 = EDGE_LOOP ( 'NONE', ( #70, #192, #67, #302 ) ) ;
#92 = AXIS2_PLACEMENT_3D ( 'NONE', #154, #266, #151 ) ;
#93 = ORIENTED_EDGE ( 'NONE', *, *, #53, .F. ) ;
#94 = PRODUCT_DEFINITION ( 'NEZNÁMÝ', '', #50, #229 ) ;
#95 = DIRECTION ( 'NONE',  ( -0.000000000000000000, -0.000000000000000000, -1.000000000000000000 ) ) ;
#96 = CLOSED_SHELL ( 'NONE', ( #274, #13, #145, #237, #148, #99, #203, #4, #259 ) ) ;
#97 = DIRECTION ( 'NONE',  ( 0.000000000000000000, 0.000000000000000000, 1.000000000000000000 ) ) ;
#98 = VERTEX_POINT ( 'NONE', #119 ) ;
#99 = ADVANCED_FACE ( 'NONE', ( #216 ), #23, .F. ) ;
#100 = ORIENTED_EDGE ( 'NONE', *, *, #69, .F. ) ;
#101 = CARTESIAN_POINT ( 'NONE',  ( 7.000000000000000000, 8.572527594031473190E-16, 5.000000000000000000 ) ) ;
#102 = DIRECTION ( 'NONE',  ( 1.000000000000000000, 0.000000000000000000, -0.000000000000000000 ) ) ;
#103 = DIRECTION ( 'NONE',  ( 0.000000000000000000, -1.000000000000000000, 0.000000000000000000 ) ) ;
#104 = DIRECTION ( 'NONE',  ( -0.000000000000000000, -0.000000000000000000, -1.000000000000000000 ) ) ;
#105 = DIRECTION ( 'NONE',  ( -0.000000000000000000, -0.000000000000000000, -1.000000000000000000 ) ) ;
#106 = DIRECTION ( 'NONE',  ( 0.000000000000000000, 0.000000000000000000, 1.000000000000000000 ) ) ;
#107 = APPROVAL_DATE_TIME ( #7, #66 ) ;
#108 = DIRECTION ( 'NONE',  ( 1.000000000000000000, 0.000000000000000000, 0.000000000000000000 ) ) ;
#109 = CIRCLE ( 'NONE', #243, 4.500000000000000000 ) ;
#110 = CALENDAR_DATE ( 2022, 7, 7 ) ;
#111 = COORDINATED_UNIVERSAL_TIME_OFFSET ( 1, 0, .AHEAD. ) ;
#112 = AXIS2_PLACEMENT_3D ( 'NONE', #170, #263, #73 ) ;
#113 = EDGE_CURVE ( 'NONE', #142, #236, #43, .T. ) ;
#114 = ORIENTED_EDGE ( 'NONE', *, *, #305, .T. ) ;
#115 = SHAPE_DEFINITION_REPRESENTATION ( #16, #126 ) ;
#116 = CC_DESIGN_APPROVAL ( #242, ( #56 ) ) ;
#117 = CARTESIAN_POINT ( 'NONE',  ( 0.000000000000000000, 0.000000000000000000, 130.0000000000000000 ) ) ;
#118 = DIRECTION ( 'NONE',  ( 1.000000000000000000, 0.000000000000000000, 0.000000000000000000 ) ) ;
#119 = CARTESIAN_POINT ( 'NONE',  ( 7.000000000000000000, 8.572527594031473190E-16, 0.000000000000000000 ) ) ;
#120 = EDGE_CURVE ( 'NONE', #98, #189, #30, .T. ) ;
#121 = LOCAL_TIME ( 14, 30, 16.00000000000000000, #35 ) ;
#122 = CARTESIAN_POINT ( 'NONE',  ( 0.000000000000000000, 0.000000000000000000, 0.000000000000000000 ) ) ;
#123 = DIRECTION ( 'NONE',  ( 0.000000000000000000, 0.000000000000000000, 1.000000000000000000 ) ) ;
#124 = CC_DESIGN_DATE_AND_TIME_ASSIGNMENT ( #10, #186, ( #94 ) ) ;
#125 = CARTESIAN_POINT ( 'NONE',  ( 4.500000000000000000, 5.510910596163088569E-16, 130.0000000000000000 ) ) ;
#126 = ADVANCED_BREP_SHAPE_REPRESENTATION ( '39db', ( #34, #153 ), #172 ) ;
#127 = CARTESIAN_POINT ( 'NONE',  ( -7.000000000000000000, 0.000000000000000000, 5.000000000000000000 ) ) ;
#128 = FACE_OUTER_BOUND ( 'NONE', #91, .T. ) ;
#129 = CALENDAR_DATE ( 2022, 7, 7 ) ;
#130 = COORDINATED_UNIVERSAL_TIME_OFFSET ( 1, 0, .AHEAD. ) ;
#131 = VERTEX_POINT ( 'NONE', #74 ) ;
#132 = APPROVAL_ROLE ( '' ) ;
#133 = MECHANICAL_CONTEXT ( 'NONE', #71, 'mechanical' ) ;
#134 = ORIENTED_EDGE ( 'NONE', *, *, #53, .T. ) ;
#135 = PERSON_AND_ORGANIZATION ( #255, #46 ) ;
#136 = CC_DESIGN_DATE_AND_TIME_ASSIGNMENT ( #165, #86, ( #56 ) ) ;
#137 = APPROVAL_STATUS ( 'not_yet_approved' ) ;
#138 = LOCAL_TIME ( 14, 30, 16.00000000000000000, #235 ) ;
#139 = APPROVAL_STATUS ( 'not_yet_approved' ) ;
#140 = PERSON_AND_ORGANIZATION_ROLE ( 'classification_officer' ) ;
#141 = VERTEX_POINT ( 'NONE', #222 ) ;
#142 = VERTEX_POINT ( 'NONE', #157 ) ;
#143 = CARTESIAN_POINT ( 'NONE',  ( 0.000000000000000000, 0.000000000000000000, 5.000000000000000000 ) ) ;
#144 = ORIENTED_EDGE ( 'NONE', *, *, #295, .T. ) ;
#145 = ADVANCED_FACE ( 'NONE', ( #128 ), #47, .T. ) ;
#146 = EDGE_LOOP ( 'NONE', ( #134, #114 ) ) ;
#147 = AXIS2_PLACEMENT_3D ( 'NONE', #246, #123, #245 ) ;
#148 = ADVANCED_FACE ( 'NONE', ( #173, #288 ), #76, .T. ) ;
#149 = DIRECTION ( 'NONE',  ( -0.000000000000000000, -0.000000000000000000, -1.000000000000000000 ) ) ;
#150 = CIRCLE ( 'NONE', #304, 4.500000000000000000 ) ;
#151 = DIRECTION ( 'NONE',  ( 1.000000000000000000, 0.000000000000000000, 0.000000000000000000 ) ) ;
#152 = LINE ( 'NONE', #197, #40 ) ;
#153 = AXIS2_PLACEMENT_3D ( 'NONE', #294, #183, #253 ) ;
#154 = CARTESIAN_POINT ( 'NONE',  ( 0.000000000000000000, 0.000000000000000000, 0.000000000000000000 ) ) ;
#155 = EDGE_CURVE ( 'NONE', #189, #98, #62, .T. ) ;
#156 = AXIS2_PLACEMENT_3D ( 'NONE', #25, #80, #102 ) ;
#157 = CARTESIAN_POINT ( 'NONE',  ( -4.500000000000000000, 0.000000000000000000, 5.199999999999996625 ) ) ;
#158 = CALENDAR_DATE ( 2022, 7, 7 ) ;
#159 = APPROVAL_PERSON_ORGANIZATION ( #257, #66, #230 ) ;
#160 = COORDINATED_UNIVERSAL_TIME_OFFSET ( 1, 0, .AHEAD. ) ;
#161 = ORIENTED_EDGE ( 'NONE', *, *, #155, .F. ) ;
#162 = APPROVAL_STATUS ( 'not_yet_approved' ) ;
#163 = CALENDAR_DATE ( 2022, 7, 7 ) ;
#164 = CC_DESIGN_APPROVAL ( #66, ( #50 ) ) ;
#165 = DATE_AND_TIME ( #15, #138 ) ;
#166 = VERTEX_POINT ( 'NONE', #227 ) ;
#167 = ORIENTED_EDGE ( 'NONE', *, *, #278, .T. ) ;
#168 = CARTESIAN_POINT ( 'NONE',  ( 0.000000000000000000, 0.000000000000000000, 5.000000000000000000 ) ) ;
#169 = CARTESIAN_POINT ( 'NONE',  ( 0.000000000000000000, 0.000000000000000000, 130.0000000000000000 ) ) ;
#170 = CARTESIAN_POINT ( 'NONE',  ( 0.000000000000000000, 0.000000000000000000, 5.199999999999996625 ) ) ;
#171 = EDGE_CURVE ( 'NONE', #131, #236, #11, .T. ) ;
#172 =( GEOMETRIC_REPRESENTATION_CONTEXT ( 3 ) GLOBAL_UNCERTAINTY_ASSIGNED_CONTEXT ( ( #249 ) ) GLOBAL_UNIT_ASSIGNED_CONTEXT ( ( #297, #251, #272 ) ) REPRESENTATION_CONTEXT ( 'NONE', 'WORKASPACE' ) );
#173 = FACE_BOUND ( 'NONE', #231, .T. ) ;
#174 = DIRECTION ( 'NONE',  ( -0.000000000000000000, -0.000000000000000000, -1.000000000000000000 ) ) ;
#175 = DIRECTION ( 'NONE',  ( -1.000000000000000000, 0.000000000000000000, 0.000000000000000000 ) ) ;
#176 = DIRECTION ( 'NONE',  ( -0.000000000000000000, -0.000000000000000000, -1.000000000000000000 ) ) ;
#177 = DIRECTION ( 'NONE',  ( -0.000000000000000000, -0.000000000000000000, -1.000000000000000000 ) ) ;
#178 = CIRCLE ( 'NONE', #226, 4.699999999999999289 ) ;
#179 = APPLICATION_PROTOCOL_DEFINITION ( 'international standard', 'config_control_design', 1994, #71 ) ;
#180 = CC_DESIGN_PERSON_AND_ORGANIZATION_ASSIGNMENT ( #256, #85, ( #60 ) ) ;
#181 = PERSON_AND_ORGANIZATION_ROLE ( 'design_supplier' ) ;
#182 = VECTOR ( 'NONE', #149, 1000.000000000000000 ) ;
#183 = DIRECTION ( 'NONE',  ( 0.000000000000000000, 0.000000000000000000, 1.000000000000000000 ) ) ;
#184 = AXIS2_PLACEMENT_3D ( 'NONE', #122, #194, #51 ) ;
#185 = CARTESIAN_POINT ( 'NONE',  ( 4.500000000000000000, 5.510910596163088569E-16, 130.0000000000000000 ) ) ;
#186 = DATE_TIME_ROLE ( 'creation_date' ) ;
#187 = ORIENTED_EDGE ( 'NONE', *, *, #171, .T. ) ;
#188 = LOCAL_TIME ( 14, 30, 16.00000000000000000, #160 ) ;
#189 = VERTEX_POINT ( 'NONE', #248 ) ;
#190 = EDGE_LOOP ( 'NONE', ( #241, #58 ) ) ;
#191 = EDGE_CURVE ( 'NONE', #206, #98, #306, .T. ) ;
#192 = ORIENTED_EDGE ( 'NONE', *, *, #191, .T. ) ;
#193 = CYLINDRICAL_SURFACE ( 'NONE', #6, 4.500000000000000000 ) ;
#194 = DIRECTION ( 'NONE',  ( 0.000000000000000000, 0.000000000000000000, 1.000000000000000000 ) ) ;
#195 = CYLINDRICAL_SURFACE ( 'NONE', #207, 4.500000000000000000 ) ;
#196 = AXIS2_PLACEMENT_3D ( 'NONE', #208, #106, #63 ) ;
#197 = CARTESIAN_POINT ( 'NONE',  ( -7.000000000000000000, 0.000000000000000000, 5.000000000000000000 ) ) ;
#198 = DIRECTION ( 'NONE',  ( 1.000000000000000000, 0.000000000000000000, 0.000000000000000000 ) ) ;
#199 = EDGE_CURVE ( 'NONE', #206, #277, #212, .T. ) ;
#200 = DIRECTION ( 'NONE',  ( 1.000000000000000000, 0.000000000000000000, 0.000000000000000000 ) ) ;
#201 = DIRECTION ( 'NONE',  ( 1.224646799147353207E-16, 1.000000000000000000, -0.000000000000000000 ) ) ;
#202 = AXIS2_PLACEMENT_3D ( 'NONE', #293, #103, #307 ) ;
#203 = ADVANCED_FACE ( 'NONE', ( #82 ), #195, .T. ) ;
#204 = PERSON_AND_ORGANIZATION_ROLE ( 'creator' ) ;
#205 = DIRECTION ( 'NONE',  ( -0.000000000000000000, -0.000000000000000000, -1.000000000000000000 ) ) ;
#206 = VERTEX_POINT ( 'NONE', #52 ) ;
#207 = AXIS2_PLACEMENT_3D ( 'NONE', #26, #176, #31 ) ;
#208 = CARTESIAN_POINT ( 'NONE',  ( 0.000000000000000000, 0.000000000000000000, 130.0000000000000000 ) ) ;
#209 = EDGE_LOOP ( 'NONE', ( #215, #45, #65, #12 ) ) ;
#210 = PERSON_AND_ORGANIZATION ( #255, #46 ) ;
#211 = ORIENTED_EDGE ( 'NONE', *, *, #228, .T. ) ;
#212 = CIRCLE ( 'NONE', #147, 7.000000000000000000 ) ;
#213 = ORIENTED_EDGE ( 'NONE', *, *, #191, .F. ) ;
#214 = EDGE_CURVE ( 'NONE', #298, #166, #286, .T. ) ;
#215 = ORIENTED_EDGE ( 'NONE', *, *, #278, .F. ) ;
#216 = FACE_OUTER_BOUND ( 'NONE', #41, .T. ) ;
#217 = LOCAL_TIME ( 14, 30, 16.00000000000000000, #130 ) ;
#218 = EDGE_CURVE ( 'NONE', #166, #131, #287, .T. ) ;
#219 = CARTESIAN_POINT ( 'NONE',  ( 0.000000000000000000, 0.000000000000000000, 130.0000000000000000 ) ) ;
#220 = CARTESIAN_POINT ( 'NONE',  ( -4.699999999999999289, 5.755839955992558669E-16, 4.999999999999998224 ) ) ;
#221 = AXIS2_PLACEMENT_3D ( 'NONE', #78, #104, #290 ) ;
#222 = CARTESIAN_POINT ( 'NONE',  ( -4.500000000000000000, 0.000000000000000000, 130.0000000000000000 ) ) ;
#223 = TOROIDAL_SURFACE ( 'NONE', #247, 4.699999999999999289, 0.2000000000000000111 ) ;
#224 = FACE_OUTER_BOUND ( 'NONE', #209, .T. ) ;
#225 = FACE_OUTER_BOUND ( 'NONE', #279, .T. ) ;
#226 = AXIS2_PLACEMENT_3D ( 'NONE', #168, #240, #21 ) ;
#227 = CARTESIAN_POINT ( 'NONE',  ( 4.500000000000000000, 5.510910596163088569E-16, 5.199999999999996625 ) ) ;
#228 = EDGE_CURVE ( 'NONE', #277, #189, #152, .T. ) ;
#229 = DESIGN_CONTEXT ( 'detailed design', #89, 'design' ) ;
#230 = APPROVAL_ROLE ( '' ) ;
#231 = EDGE_LOOP ( 'NONE', ( #187, #19 ) ) ;
#232 = PERSON_AND_ORGANIZATION ( #255, #46 ) ;
#233 = CC_DESIGN_SECURITY_CLASSIFICATION ( #56, ( #50 ) ) ;
#234 = DIRECTION ( 'NONE',  ( 0.000000000000000000, 0.000000000000000000, 1.000000000000000000 ) ) ;
#235 = COORDINATED_UNIVERSAL_TIME_OFFSET ( 1, 0, .AHEAD. ) ;
#236 = VERTEX_POINT ( 'NONE', #220 ) ;
#237 = ADVANCED_FACE ( 'NONE', ( #225 ), #269, .T. ) ;
#238 = PLANE ( 'NONE',  #244 ) ;
#239 = EDGE_LOOP ( 'NONE', ( #285, #93, #144, #167 ) ) ;
#240 = DIRECTION ( 'NONE',  ( -0.000000000000000000, -0.000000000000000000, -1.000000000000000000 ) ) ;
#241 = ORIENTED_EDGE ( 'NONE', *, *, #20, .T. ) ;
#242 = APPROVAL ( #137, 'NEURÈENÝ' ) ;
#243 = AXIS2_PLACEMENT_3D ( 'NONE', #273, #234, #108 ) ;
#244 = AXIS2_PLACEMENT_3D ( 'NONE', #169, #44, #300 ) ;
#245 = DIRECTION ( 'NONE',  ( 1.000000000000000000, 0.000000000000000000, 0.000000000000000000 ) ) ;
#246 = CARTESIAN_POINT ( 'NONE',  ( 0.000000000000000000, 0.000000000000000000, 5.000000000000000000 ) ) ;
#247 = AXIS2_PLACEMENT_3D ( 'NONE', #9, #250, #57 ) ;
#248 = CARTESIAN_POINT ( 'NONE',  ( -7.000000000000000000, 0.000000000000000000, 0.000000000000000000 ) ) ;
#249 = UNCERTAINTY_MEASURE_WITH_UNIT (LENGTH_MEASURE( 1.000000000000000082E-05 ), #297, 'distance_accuracy_value', 'NONE');
#250 = DIRECTION ( 'NONE',  ( 0.000000000000000000, 0.000000000000000000, 1.000000000000000000 ) ) ;
#251 =( NAMED_UNIT ( * ) PLANE_ANGLE_UNIT ( ) SI_UNIT ( $, .RADIAN. ) );
#252 = AXIS2_PLACEMENT_3D ( 'NONE', #27, #174, #175 ) ;
#253 = DIRECTION ( 'NONE',  ( 1.000000000000000000, 0.000000000000000000, 0.000000000000000000 ) ) ;
#254 = DATE_AND_TIME ( #110, #188 ) ;
#255 = PERSON ( 'NEURÈENÝ', 'NEURÈENÝ', 'NEURÈENÝ', ('NEURÈENÝ'), ('NEURÈENÝ'), ('NEURÈENÝ') ) ;
#256 = PERSON_AND_ORGANIZATION ( #255, #46 ) ;
#257 = PERSON_AND_ORGANIZATION ( #255, #46 ) ;
#258 = SECURITY_CLASSIFICATION_LEVEL ( 'unclassified' ) ;
#259 = ADVANCED_FACE ( 'NONE', ( #268 ), #81, .F. ) ;
#260 = ORIENTED_EDGE ( 'NONE', *, *, #20, .F. ) ;
#261 = ORIENTED_EDGE ( 'NONE', *, *, #305, .F. ) ;
#262 = ORIENTED_EDGE ( 'NONE', *, *, #214, .T. ) ;
#263 = DIRECTION ( 'NONE',  ( 0.000000000000000000, 0.000000000000000000, 1.000000000000000000 ) ) ;
#264 = ORIENTED_EDGE ( 'NONE', *, *, #77, .T. ) ;
#265 = APPROVAL_PERSON_ORGANIZATION ( #232, #267, #90 ) ;
#266 = DIRECTION ( 'NONE',  ( 0.000000000000000000, 0.000000000000000000, 1.000000000000000000 ) ) ;
#267 = APPROVAL ( #162, 'NEURÈENÝ' ) ;
#268 = FACE_OUTER_BOUND ( 'NONE', #39, .T. ) ;
#269 = CYLINDRICAL_SURFACE ( 'NONE', #252, 7.000000000000000000 ) ;
#270 = CARTESIAN_POINT ( 'NONE',  ( 0.000000000000000000, 0.000000000000000000, 5.000000000000000000 ) ) ;
#271 = DIRECTION ( 'NONE',  ( -0.000000000000000000, -0.000000000000000000, -1.000000000000000000 ) ) ;
#272 =( NAMED_UNIT ( * ) SI_UNIT ( $, .STERADIAN. ) SOLID_ANGLE_UNIT ( ) );
#273 = CARTESIAN_POINT ( 'NONE',  ( 0.000000000000000000, 0.000000000000000000, 5.199999999999996625 ) ) ;
#274 = ADVANCED_FACE ( 'NONE', ( #224 ), #223, .F. ) ;
#275 = CARTESIAN_POINT ( 'NONE',  ( -4.500000000000000000, 0.000000000000000000, 130.0000000000000000 ) ) ;
#276 = APPROVAL_PERSON_ORGANIZATION ( #59, #242, #132 ) ;
#277 = VERTEX_POINT ( 'NONE', #127 ) ;
#278 = EDGE_CURVE ( 'NONE', #142, #166, #109, .T. ) ;
#279 = EDGE_LOOP ( 'NONE', ( #213, #260, #211, #17 ) ) ;
#280 = CIRCLE ( 'NONE', #2, 7.000000000000000000 ) ;
#281 = ORIENTED_EDGE ( 'NONE', *, *, #120, .F. ) ;
#282 = DIRECTION ( 'NONE',  ( 0.000000000000000000, 0.000000000000000000, 1.000000000000000000 ) ) ;
#283 = CIRCLE ( 'NONE', #196, 4.500000000000000000 ) ;
#284 = EDGE_LOOP ( 'NONE', ( #261, #262, #264, #18 ) ) ;
#285 = ORIENTED_EDGE ( 'NONE', *, *, #214, .F. ) ;
#286 = LINE ( 'NONE', #125, #24 ) ;
#287 = CIRCLE ( 'NONE', #202, 0.1999999999999996503 ) ;
#288 = FACE_OUTER_BOUND ( 'NONE', #190, .T. ) ;
#289 = DIRECTION ( 'NONE',  ( 0.000000000000000000, 0.000000000000000000, 1.000000000000000000 ) ) ;
#290 = DIRECTION ( 'NONE',  ( -1.000000000000000000, 0.000000000000000000, 0.000000000000000000 ) ) ;
#291 = LOCAL_TIME ( 14, 30, 16.00000000000000000, #111 ) ;
#292 = AXIS2_PLACEMENT_3D ( 'NONE', #270, #271, #200 ) ;
#293 = CARTESIAN_POINT ( 'NONE',  ( 4.699999999999999289, 0.000000000000000000, 5.199999999999996625 ) ) ;
#294 = CARTESIAN_POINT ( 'NONE',  ( 0.000000000000000000, 0.000000000000000000, 0.000000000000000000 ) ) ;
#295 = EDGE_CURVE ( 'NONE', #141, #142, #32, .T. ) ;
#296 = ORIENTED_EDGE ( 'NONE', *, *, #77, .F. ) ;
#297 =( LENGTH_UNIT ( ) NAMED_UNIT ( * ) SI_UNIT ( .MILLI., .METRE. ) );
#298 = VERTEX_POINT ( 'NONE', #185 ) ;
#299 = ORIENTED_EDGE ( 'NONE', *, *, #113, .F. ) ;
#300 = DIRECTION ( 'NONE',  ( 1.000000000000000000, 0.000000000000000000, -0.000000000000000000 ) ) ;
#301 = FACE_OUTER_BOUND ( 'NONE', #284, .T. ) ;
#302 = ORIENTED_EDGE ( 'NONE', *, *, #228, .F. ) ;
#303 = FACE_OUTER_BOUND ( 'NONE', #146, .T. ) ;
#304 = AXIS2_PLACEMENT_3D ( 'NONE', #219, #282, #68 ) ;
#305 = EDGE_CURVE ( 'NONE', #298, #141, #283, .T. ) ;
#306 = LINE ( 'NONE', #101, #182 ) ;
#307 = DIRECTION ( 'NONE',  ( 0.000000000000000000, 0.000000000000000000, -1.000000000000000000 ) ) ;
ENDSEC;
END-ISO-10303-21;
