ISO-10303-21;
HEADER;
FILE_DESCRIPTION (( 'STEP AP203' ),
    '1' );
FILE_NAME ('9841.STEP',
    '2022-07-07T12:21:23',
    ( '' ),
    ( '' ),
    'SwSTEP 2.0',
    'SolidWorks 2019',
    '' );
FILE_SCHEMA (( 'CONFIG_CONTROL_DESIGN' ));
ENDSEC;

DATA;
#1 = DIRECTION ( 'NONE',  ( -1.000000000000000000, 0.000000000000000000, 0.000000000000000000 ) ) ;
#2 = EDGE_CURVE ( 'NONE', #284, #65, #5, .T. ) ;
#3 = DIRECTION ( 'NONE',  ( -0.000000000000000000, -0.000000000000000000, -1.000000000000000000 ) ) ;
#4 = DIRECTION ( 'NONE',  ( 1.000000000000000000, 0.000000000000000000, -0.000000000000000000 ) ) ;
#5 = CIRCLE ( 'NONE', #244, 11.00000000000000000 ) ;
#6 = CC_DESIGN_APPROVAL ( #27, ( #213 ) ) ;
#7 = CARTESIAN_POINT ( 'NONE',  ( 0.000000000000000000, 0.000000000000000000, 132.0000000000000000 ) ) ;
#8 = CARTESIAN_POINT ( 'NONE',  ( 0.000000000000000000, 0.000000000000000000, 7.000000000000000000 ) ) ;
#9 = APPROVAL_ROLE ( '' ) ;
#10 = ORIENTED_EDGE ( 'NONE', *, *, #16, .T. ) ;
#11 = CC_DESIGN_PERSON_AND_ORGANIZATION_ASSIGNMENT ( #34, #13, ( #258 ) ) ;
#12 = PERSON_AND_ORGANIZATION_ROLE ( 'design_supplier' ) ;
#13 = PERSON_AND_ORGANIZATION_ROLE ( 'classification_officer' ) ;
#14 = PERSON_AND_ORGANIZATION ( #19, #46 ) ;
#15 = EDGE_LOOP ( 'NONE', ( #280, #195 ) ) ;
#16 = EDGE_CURVE ( 'NONE', #256, #35, #294, .T. ) ;
#17 = CC_DESIGN_APPROVAL ( #146, ( #258 ) ) ;
#18 = COORDINATED_UNIVERSAL_TIME_OFFSET ( 1, 0, .AHEAD. ) ;
#19 = PERSON ( 'NEURÈENÝ', 'NEURÈENÝ', 'NEURÈENÝ', ('NEURÈENÝ'), ('NEURÈENÝ'), ('NEURÈENÝ') ) ;
#20 = ORIENTED_EDGE ( 'NONE', *, *, #110, .F. ) ;
#21 = CARTESIAN_POINT ( 'NONE',  ( -11.00000000000000000, 0.000000000000000000, 7.000000000000000000 ) ) ;
#22 = AXIS2_PLACEMENT_3D ( 'NONE', #78, #126, #271 ) ;
#23 = EDGE_LOOP ( 'NONE', ( #112, #162, #10, #121 ) ) ;
#24 = ADVANCED_FACE ( 'NONE', ( #120 ), #47, .T. ) ;
#25 = ORIENTED_EDGE ( 'NONE', *, *, #98, .T. ) ;
#26 = DIRECTION ( 'NONE',  ( -1.000000000000000000, 0.000000000000000000, 0.000000000000000000 ) ) ;
#27 = APPROVAL ( #152, 'NEURÈENÝ' ) ;
#28 = AXIS2_PLACEMENT_3D ( 'NONE', #281, #260, #93 ) ;
#29 = DIRECTION ( 'NONE',  ( 0.000000000000000000, 0.000000000000000000, 1.000000000000000000 ) ) ;
#30 = DIRECTION ( 'NONE',  ( 0.000000000000000000, 0.000000000000000000, 1.000000000000000000 ) ) ;
#31 = FACE_OUTER_BOUND ( 'NONE', #139, .T. ) ;
#32 = DIRECTION ( 'NONE',  ( -0.000000000000000000, -0.000000000000000000, -1.000000000000000000 ) ) ;
#33 = CARTESIAN_POINT ( 'NONE',  ( 0.000000000000000000, 0.000000000000000000, 132.0000000000000000 ) ) ;
#34 = PERSON_AND_ORGANIZATION ( #19, #46 ) ;
#35 = VERTEX_POINT ( 'NONE', #136 ) ;
#36 = CC_DESIGN_DATE_AND_TIME_ASSIGNMENT ( #81, #133, ( #55 ) ) ;
#37 = PERSON_AND_ORGANIZATION ( #19, #46 ) ;
#38 =( NAMED_UNIT ( * ) SI_UNIT ( $, .STERADIAN. ) SOLID_ANGLE_UNIT ( ) );
#39 = ORIENTED_EDGE ( 'NONE', *, *, #43, .T. ) ;
#40 = AXIS2_PLACEMENT_3D ( 'NONE', #123, #147, #145 ) ;
#41 = VERTEX_POINT ( 'NONE', #231 ) ;
#42 = DIRECTION ( 'NONE',  ( 1.224646799147353207E-16, 1.000000000000000000, -0.000000000000000000 ) ) ;
#43 = EDGE_CURVE ( 'NONE', #278, #208, #283, .T. ) ;
#44 = VERTEX_POINT ( 'NONE', #73 ) ;
#45 = CIRCLE ( 'NONE', #191, 11.00000000000000000 ) ;
#46 = ORGANIZATION ( 'NEURÈENÝ', 'NEURÈENÝ', '' ) ;
#47 = CYLINDRICAL_SURFACE ( 'NONE', #229, 8.000000000000000000 ) ;
#48 = ORIENTED_EDGE ( 'NONE', *, *, #142, .F. ) ;
#49 = CARTESIAN_POINT ( 'NONE',  ( 0.000000000000000000, 0.000000000000000000, 0.000000000000000000 ) ) ;
#50 = CIRCLE ( 'NONE', #222, 8.000000000000000000 ) ;
#51 = VECTOR ( 'NONE', #288, 1000.000000000000000 ) ;
#52 = DIRECTION ( 'NONE',  ( -1.000000000000000000, 0.000000000000000000, 0.000000000000000000 ) ) ;
#53 = CC_DESIGN_SECURITY_CLASSIFICATION ( #258, ( #213 ) ) ;
#54 = DIRECTION ( 'NONE',  ( 0.000000000000000000, 0.000000000000000000, 1.000000000000000000 ) ) ;
#55 = PRODUCT_DEFINITION ( 'NEZNÁMÝ', '', #213, #95 ) ;
#56 = DIRECTION ( 'NONE',  ( 0.000000000000000000, 0.000000000000000000, 1.000000000000000000 ) ) ;
#57 = ADVANCED_FACE ( 'NONE', ( #209 ), #250, .F. ) ;
#58 = CARTESIAN_POINT ( 'NONE',  ( 0.000000000000000000, 0.000000000000000000, 7.000000000000000000 ) ) ;
#59 = APPROVAL_DATE_TIME ( #277, #247 ) ;
#60 = APPROVAL_STATUS ( 'not_yet_approved' ) ;
#61 = APPROVAL_STATUS ( 'not_yet_approved' ) ;
#62 = ORIENTED_EDGE ( 'NONE', *, *, #124, .T. ) ;
#63 = VERTEX_POINT ( 'NONE', #211 ) ;
#64 = ADVANCED_BREP_SHAPE_REPRESENTATION ( '9841', ( #286, #224 ), #207 ) ;
#65 = VERTEX_POINT ( 'NONE', #21 ) ;
#66 = CC_DESIGN_PERSON_AND_ORGANIZATION_ASSIGNMENT ( #226, #249, ( #213 ) ) ;
#67 = APPLICATION_CONTEXT ( 'configuration controlled 3d designs of mechanical parts and assemblies' ) ;
#68 = EDGE_LOOP ( 'NONE', ( #48, #92, #62, #300 ) ) ;
#69 = ORIENTED_EDGE ( 'NONE', *, *, #153, .T. ) ;
#70 = CLOSED_SHELL ( 'NONE', ( #57, #24, #299, #107, #89, #221, #265, #275, #132 ) ) ;
#71 = CIRCLE ( 'NONE', #40, 8.000000000000000000 ) ;
#72 = DIRECTION ( 'NONE',  ( -0.000000000000000000, -0.000000000000000000, -1.000000000000000000 ) ) ;
#73 = CARTESIAN_POINT ( 'NONE',  ( -11.00000000000000000, 0.000000000000000000, 0.000000000000000000 ) ) ;
#74 = EDGE_CURVE ( 'NONE', #65, #44, #119, .T. ) ;
#75 = DIRECTION ( 'NONE',  ( 1.000000000000000000, 0.000000000000000000, 0.000000000000000000 ) ) ;
#76 = PRODUCT ( '9841', '9841', '', ( #170 ) ) ;
#77 = AXIS2_PLACEMENT_3D ( 'NONE', #8, #30, #128 ) ;
#78 = CARTESIAN_POINT ( 'NONE',  ( 0.000000000000000000, 0.000000000000000000, 0.000000000000000000 ) ) ;
#79 = CYLINDRICAL_SURFACE ( 'NONE', #127, 11.00000000000000000 ) ;
#80 = DIRECTION ( 'NONE',  ( 0.000000000000000000, 0.000000000000000000, 1.000000000000000000 ) ) ;
#81 = DATE_AND_TIME ( #116, #131 ) ;
#82 = VECTOR ( 'NONE', #118, 1000.000000000000000 ) ;
#83 = SECURITY_CLASSIFICATION_LEVEL ( 'unclassified' ) ;
#84 = ORIENTED_EDGE ( 'NONE', *, *, #110, .T. ) ;
#85 = PERSON_AND_ORGANIZATION ( #19, #46 ) ;
#86 = ORIENTED_EDGE ( 'NONE', *, *, #201, .T. ) ;
#87 = PERSON_AND_ORGANIZATION ( #19, #46 ) ;
#88 = SHAPE_DEFINITION_REPRESENTATION ( #238, #64 ) ;
#89 = ADVANCED_FACE ( 'NONE', ( #302, #205 ), #90, .T. ) ;
#90 = PLANE ( 'NONE',  #28 ) ;
#91 = AXIS2_PLACEMENT_3D ( 'NONE', #7, #29, #101 ) ;
#92 = ORIENTED_EDGE ( 'NONE', *, *, #254, .T. ) ;
#93 = DIRECTION ( 'NONE',  ( 1.000000000000000000, 0.000000000000000000, -0.000000000000000000 ) ) ;
#94 = PRODUCT_RELATED_PRODUCT_CATEGORY ( 'detail', '', ( #76 ) ) ;
#95 = DESIGN_CONTEXT ( 'detailed design', #67, 'design' ) ;
#96 = CYLINDRICAL_SURFACE ( 'NONE', #290, 11.00000000000000000 ) ;
#97 = EDGE_LOOP ( 'NONE', ( #220, #39, #198, #185 ) ) ;
#98 = EDGE_CURVE ( 'NONE', #278, #256, #50, .T. ) ;
#99 = CARTESIAN_POINT ( 'NONE',  ( 0.000000000000000000, 0.000000000000000000, 7.000000000000000000 ) ) ;
#100 = DIRECTION ( 'NONE',  ( -1.000000000000000000, 0.000000000000000000, 0.000000000000000000 ) ) ;
#101 = DIRECTION ( 'NONE',  ( 1.000000000000000000, 0.000000000000000000, -0.000000000000000000 ) ) ;
#102 = AXIS2_PLACEMENT_3D ( 'NONE', #99, #171, #105 ) ;
#103 = CARTESIAN_POINT ( 'NONE',  ( 0.000000000000000000, 0.000000000000000000, 7.199999999999998401 ) ) ;
#104 = PLANE ( 'NONE',  #223 ) ;
#105 = DIRECTION ( 'NONE',  ( 1.000000000000000000, 0.000000000000000000, 0.000000000000000000 ) ) ;
#106 = ORIENTED_EDGE ( 'NONE', *, *, #306, .T. ) ;
#107 = ADVANCED_FACE ( 'NONE', ( #305 ), #96, .T. ) ;
#108 = CARTESIAN_POINT ( 'NONE',  ( 0.000000000000000000, 0.000000000000000000, 0.000000000000000000 ) ) ;
#109 = CALENDAR_DATE ( 2022, 7, 7 ) ;
#110 = EDGE_CURVE ( 'NONE', #44, #63, #204, .T. ) ;
#111 = UNCERTAINTY_MEASURE_WITH_UNIT (LENGTH_MEASURE( 1.000000000000000082E-05 ), #169, 'distance_accuracy_value', 'NONE');
#112 = ORIENTED_EDGE ( 'NONE', *, *, #43, .F. ) ;
#113 = PERSON_AND_ORGANIZATION_ROLE ( 'creator' ) ;
#114 = AXIS2_PLACEMENT_3D ( 'NONE', #103, #56, #267 ) ;
#115 = LOCAL_TIME ( 14, 21, 23.00000000000000000, #193 ) ;
#116 = CALENDAR_DATE ( 2022, 7, 7 ) ;
#117 = CARTESIAN_POINT ( 'NONE',  ( -11.00000000000000000, 0.000000000000000000, 7.000000000000000000 ) ) ;
#118 = DIRECTION ( 'NONE',  ( -0.000000000000000000, -0.000000000000000000, -1.000000000000000000 ) ) ;
#119 = LINE ( 'NONE', #117, #82 ) ;
#120 = FACE_OUTER_BOUND ( 'NONE', #68, .T. ) ;
#121 = ORIENTED_EDGE ( 'NONE', *, *, #230, .F. ) ;
#122 = CIRCLE ( 'NONE', #295, 8.200000000000001066 ) ;
#123 = CARTESIAN_POINT ( 'NONE',  ( 0.000000000000000000, 0.000000000000000000, 132.0000000000000000 ) ) ;
#124 = EDGE_CURVE ( 'NONE', #256, #278, #174, .T. ) ;
#125 = CARTESIAN_POINT ( 'NONE',  ( 0.000000000000000000, 0.000000000000000000, 7.000000000000000000 ) ) ;
#126 = DIRECTION ( 'NONE',  ( 0.000000000000000000, 0.000000000000000000, 1.000000000000000000 ) ) ;
#127 = AXIS2_PLACEMENT_3D ( 'NONE', #269, #214, #1 ) ;
#128 = DIRECTION ( 'NONE',  ( 1.000000000000000000, 0.000000000000000000, 0.000000000000000000 ) ) ;
#129 = COORDINATED_UNIVERSAL_TIME_OFFSET ( 1, 0, .AHEAD. ) ;
#130 = VERTEX_POINT ( 'NONE', #218 ) ;
#131 = LOCAL_TIME ( 14, 21, 23.00000000000000000, #154 ) ;
#132 = ADVANCED_FACE ( 'NONE', ( #268 ), #206, .F. ) ;
#133 = DATE_TIME_ROLE ( 'creation_date' ) ;
#134 = PERSON_AND_ORGANIZATION ( #19, #46 ) ;
#135 = APPROVAL_DATE_TIME ( #182, #146 ) ;
#136 = CARTESIAN_POINT ( 'NONE',  ( 8.200000000000001066, 0.000000000000000000, 6.999999999999999112 ) ) ;
#137 = CARTESIAN_POINT ( 'NONE',  ( 0.000000000000000000, 0.000000000000000000, 7.199999999999998401 ) ) ;
#138 = ORIENTED_EDGE ( 'NONE', *, *, #201, .F. ) ;
#139 = EDGE_LOOP ( 'NONE', ( #20, #161 ) ) ;
#140 = CARTESIAN_POINT ( 'NONE',  ( 0.000000000000000000, 0.000000000000000000, 132.0000000000000000 ) ) ;
#141 = CARTESIAN_POINT ( 'NONE',  ( 8.000000000000000000, 9.797174393178825657E-16, 132.0000000000000000 ) ) ;
#142 = EDGE_CURVE ( 'NONE', #130, #41, #71, .T. ) ;
#143 = AXIS2_PLACEMENT_3D ( 'NONE', #166, #3, #100 ) ;
#144 = CARTESIAN_POINT ( 'NONE',  ( 0.000000000000000000, 0.000000000000000000, 0.000000000000000000 ) ) ;
#145 = DIRECTION ( 'NONE',  ( 1.000000000000000000, 0.000000000000000000, 0.000000000000000000 ) ) ;
#146 = APPROVAL ( #61, 'NEURÈENÝ' ) ;
#147 = DIRECTION ( 'NONE',  ( 0.000000000000000000, 0.000000000000000000, 1.000000000000000000 ) ) ;
#148 = CIRCLE ( 'NONE', #212, 8.000000000000000000 ) ;
#149 = APPROVAL_PERSON_ORGANIZATION ( #173, #146, #9 ) ;
#150 = DIRECTION ( 'NONE',  ( -0.000000000000000000, -0.000000000000000000, -1.000000000000000000 ) ) ;
#151 = LOCAL_TIME ( 14, 21, 23.00000000000000000, #129 ) ;
#152 = APPROVAL_STATUS ( 'not_yet_approved' ) ;
#153 = EDGE_CURVE ( 'NONE', #63, #44, #45, .T. ) ;
#154 = COORDINATED_UNIVERSAL_TIME_OFFSET ( 1, 0, .AHEAD. ) ;
#155 = CALENDAR_DATE ( 2022, 7, 7 ) ;
#156 = AXIS2_PLACEMENT_3D ( 'NONE', #202, #304, #264 ) ;
#157 = ORIENTED_EDGE ( 'NONE', *, *, #2, .F. ) ;
#158 = VECTOR ( 'NONE', #190, 1000.000000000000000 ) ;
#159 = ORIENTED_EDGE ( 'NONE', *, *, #74, .F. ) ;
#160 = EDGE_LOOP ( 'NONE', ( #192, #237, #227, #84 ) ) ;
#161 = ORIENTED_EDGE ( 'NONE', *, *, #153, .F. ) ;
#162 = ORIENTED_EDGE ( 'NONE', *, *, #124, .F. ) ;
#163 = LINE ( 'NONE', #167, #279 ) ;
#164 = LINE ( 'NONE', #141, #158 ) ;
#165 = CIRCLE ( 'NONE', #77, 11.00000000000000000 ) ;
#166 = CARTESIAN_POINT ( 'NONE',  ( 0.000000000000000000, 0.000000000000000000, 132.0000000000000000 ) ) ;
#167 = CARTESIAN_POINT ( 'NONE',  ( 11.00000000000000000, 1.347111479062088405E-15, 7.000000000000000000 ) ) ;
#168 = FACE_OUTER_BOUND ( 'NONE', #272, .T. ) ;
#169 =( LENGTH_UNIT ( ) NAMED_UNIT ( * ) SI_UNIT ( .MILLI., .METRE. ) );
#170 = MECHANICAL_CONTEXT ( 'NONE', #184, 'mechanical' ) ;
#171 = DIRECTION ( 'NONE',  ( -0.000000000000000000, -0.000000000000000000, -1.000000000000000000 ) ) ;
#172 = ORIENTED_EDGE ( 'NONE', *, *, #142, .T. ) ;
#173 = PERSON_AND_ORGANIZATION ( #19, #46 ) ;
#174 = CIRCLE ( 'NONE', #114, 8.000000000000000000 ) ;
#175 = AXIS2_PLACEMENT_3D ( 'NONE', #242, #54, #186 ) ;
#176 = DIRECTION ( 'NONE',  ( 1.000000000000000000, 0.000000000000000000, 0.000000000000000000 ) ) ;
#177 = ORIENTED_EDGE ( 'NONE', *, *, #181, .T. ) ;
#178 = DIRECTION ( 'NONE',  ( 1.000000000000000000, 0.000000000000000000, 0.000000000000000000 ) ) ;
#179 = DIRECTION ( 'NONE',  ( -1.000000000000000000, 1.224646799147353207E-16, 0.000000000000000000 ) ) ;
#180 = CARTESIAN_POINT ( 'NONE',  ( 0.000000000000000000, 0.000000000000000000, 7.199999999999998401 ) ) ;
#181 = EDGE_CURVE ( 'NONE', #41, #278, #246, .T. ) ;
#182 = DATE_AND_TIME ( #233, #245 ) ;
#183 = DIRECTION ( 'NONE',  ( 0.000000000000000000, 0.000000000000000000, 1.000000000000000000 ) ) ;
#184 = APPLICATION_CONTEXT ( 'configuration controlled 3d designs of mechanical parts and assemblies' ) ;
#185 = ORIENTED_EDGE ( 'NONE', *, *, #16, .F. ) ;
#186 = DIRECTION ( 'NONE',  ( 1.000000000000000000, 0.000000000000000000, 0.000000000000000000 ) ) ;
#187 = DIRECTION ( 'NONE',  ( -0.000000000000000000, -0.000000000000000000, -1.000000000000000000 ) ) ;
#188 = CARTESIAN_POINT ( 'NONE',  ( 11.00000000000000000, 1.347111479062088405E-15, 7.000000000000000000 ) ) ;
#189 = DIRECTION ( 'NONE',  ( 0.000000000000000000, 0.000000000000000000, 1.000000000000000000 ) ) ;
#190 = DIRECTION ( 'NONE',  ( -0.000000000000000000, -0.000000000000000000, -1.000000000000000000 ) ) ;
#191 = AXIS2_PLACEMENT_3D ( 'NONE', #144, #240, #215 ) ;
#192 = ORIENTED_EDGE ( 'NONE', *, *, #270, .F. ) ;
#193 = COORDINATED_UNIVERSAL_TIME_OFFSET ( 1, 0, .AHEAD. ) ;
#194 = APPROVAL_DATE_TIME ( #248, #27 ) ;
#195 = ORIENTED_EDGE ( 'NONE', *, *, #2, .T. ) ;
#196 = CC_DESIGN_PERSON_AND_ORGANIZATION_ASSIGNMENT ( #85, #12, ( #213 ) ) ;
#197 = APPROVAL_ROLE ( '' ) ;
#198 = ORIENTED_EDGE ( 'NONE', *, *, #306, .F. ) ;
#199 = APPROVAL_PERSON_ORGANIZATION ( #87, #247, #197 ) ;
#200 =( NAMED_UNIT ( * ) PLANE_ANGLE_UNIT ( ) SI_UNIT ( $, .RADIAN. ) );
#201 = EDGE_CURVE ( 'NONE', #41, #130, #148, .T. ) ;
#202 = CARTESIAN_POINT ( 'NONE',  ( 8.200000000000001066, 0.000000000000000000, 7.199999999999998401 ) ) ;
#203 = CC_DESIGN_DATE_AND_TIME_ASSIGNMENT ( #301, #219, ( #258 ) ) ;
#204 = CIRCLE ( 'NONE', #22, 11.00000000000000000 ) ;
#205 = FACE_OUTER_BOUND ( 'NONE', #15, .T. ) ;
#206 = TOROIDAL_SURFACE ( 'NONE', #175, 8.200000000000001066, 0.2000000000000000111 ) ;
#207 =( GEOMETRIC_REPRESENTATION_CONTEXT ( 3 ) GLOBAL_UNCERTAINTY_ASSIGNED_CONTEXT ( ( #111 ) ) GLOBAL_UNIT_ASSIGNED_CONTEXT ( ( #169, #200, #38 ) ) REPRESENTATION_CONTEXT ( 'NONE', 'WORKASPACE' ) );
#208 = VERTEX_POINT ( 'NONE', #217 ) ;
#209 = FACE_OUTER_BOUND ( 'NONE', #97, .T. ) ;
#210 = CC_DESIGN_PERSON_AND_ORGANIZATION_ASSIGNMENT ( #134, #273, ( #76 ) ) ;
#211 = CARTESIAN_POINT ( 'NONE',  ( 11.00000000000000000, 1.347111479062088405E-15, 0.000000000000000000 ) ) ;
#212 = AXIS2_PLACEMENT_3D ( 'NONE', #33, #80, #75 ) ;
#213 = PRODUCT_DEFINITION_FORMATION_WITH_SPECIFIED_SOURCE ( 'LIBOVOLNÝ', '', #76, .NOT_KNOWN. ) ;
#214 = DIRECTION ( 'NONE',  ( -0.000000000000000000, -0.000000000000000000, -1.000000000000000000 ) ) ;
#215 = DIRECTION ( 'NONE',  ( 1.000000000000000000, 0.000000000000000000, 0.000000000000000000 ) ) ;
#216 = CARTESIAN_POINT ( 'NONE',  ( 8.000000000000000000, 9.797174393178825657E-16, 7.199999999999998401 ) ) ;
#217 = CARTESIAN_POINT ( 'NONE',  ( -8.200000000000001066, 1.004210375300829674E-15, 6.999999999999999112 ) ) ;
#218 = CARTESIAN_POINT ( 'NONE',  ( 8.000000000000000000, 9.797174393178825657E-16, 132.0000000000000000 ) ) ;
#219 = DATE_TIME_ROLE ( 'classification_date' ) ;
#220 = ORIENTED_EDGE ( 'NONE', *, *, #98, .F. ) ;
#221 = ADVANCED_FACE ( 'NONE', ( #31 ), #104, .F. ) ;
#222 = AXIS2_PLACEMENT_3D ( 'NONE', #180, #282, #262 ) ;
#223 = AXIS2_PLACEMENT_3D ( 'NONE', #49, #189, #4 ) ;
#224 = AXIS2_PLACEMENT_3D ( 'NONE', #108, #252, #176 ) ;
#225 = APPLICATION_PROTOCOL_DEFINITION ( 'international standard', 'config_control_design', 1994, #184 ) ;
#226 = PERSON_AND_ORGANIZATION ( #19, #46 ) ;
#227 = ORIENTED_EDGE ( 'NONE', *, *, #74, .T. ) ;
#228 = APPLICATION_PROTOCOL_DEFINITION ( 'international standard', 'config_control_design', 1994, #67 ) ;
#229 = AXIS2_PLACEMENT_3D ( 'NONE', #140, #72, #26 ) ;
#230 = EDGE_CURVE ( 'NONE', #208, #35, #122, .T. ) ;
#231 = CARTESIAN_POINT ( 'NONE',  ( -8.000000000000000000, 0.000000000000000000, 132.0000000000000000 ) ) ;
#232 = EDGE_LOOP ( 'NONE', ( #86, #172 ) ) ;
#233 = CALENDAR_DATE ( 2022, 7, 7 ) ;
#234 = AXIS2_PLACEMENT_3D ( 'NONE', #137, #235, #307 ) ;
#235 = DIRECTION ( 'NONE',  ( 0.000000000000000000, 0.000000000000000000, 1.000000000000000000 ) ) ;
#236 = CARTESIAN_POINT ( 'NONE',  ( -8.200000000000001066, 1.004210375300829674E-15, 7.199999999999998401 ) ) ;
#237 = ORIENTED_EDGE ( 'NONE', *, *, #241, .F. ) ;
#238 = PRODUCT_DEFINITION_SHAPE ( 'NONE', 'NONE',  #55 ) ;
#239 = CYLINDRICAL_SURFACE ( 'NONE', #143, 8.000000000000000000 ) ;
#240 = DIRECTION ( 'NONE',  ( 0.000000000000000000, 0.000000000000000000, 1.000000000000000000 ) ) ;
#241 = EDGE_CURVE ( 'NONE', #65, #284, #165, .T. ) ;
#242 = CARTESIAN_POINT ( 'NONE',  ( 0.000000000000000000, 0.000000000000000000, 7.199999999999998401 ) ) ;
#243 = CARTESIAN_POINT ( 'NONE',  ( -8.000000000000000000, 0.000000000000000000, 132.0000000000000000 ) ) ;
#244 = AXIS2_PLACEMENT_3D ( 'NONE', #303, #183, #178 ) ;
#245 = LOCAL_TIME ( 14, 21, 23.00000000000000000, #296 ) ;
#246 = LINE ( 'NONE', #243, #51 ) ;
#247 = APPROVAL ( #60, 'NEURÈENÝ' ) ;
#248 = DATE_AND_TIME ( #155, #115 ) ;
#249 = PERSON_AND_ORGANIZATION_ROLE ( 'creator' ) ;
#250 = TOROIDAL_SURFACE ( 'NONE', #234, 8.200000000000001066, 0.2000000000000000111 ) ;
#251 = CIRCLE ( 'NONE', #102, 8.200000000000001066 ) ;
#252 = DIRECTION ( 'NONE',  ( 0.000000000000000000, 0.000000000000000000, 1.000000000000000000 ) ) ;
#253 = ORIENTED_EDGE ( 'NONE', *, *, #270, .T. ) ;
#254 = EDGE_CURVE ( 'NONE', #130, #256, #164, .T. ) ;
#255 = CALENDAR_DATE ( 2022, 7, 7 ) ;
#256 = VERTEX_POINT ( 'NONE', #216 ) ;
#257 = AXIS2_PLACEMENT_3D ( 'NONE', #236, #42, #179 ) ;
#258 = SECURITY_CLASSIFICATION ( '', '', #83 ) ;
#259 = ORIENTED_EDGE ( 'NONE', *, *, #230, .T. ) ;
#260 = DIRECTION ( 'NONE',  ( 0.000000000000000000, 0.000000000000000000, 1.000000000000000000 ) ) ;
#261 = CC_DESIGN_PERSON_AND_ORGANIZATION_ASSIGNMENT ( #14, #113, ( #55 ) ) ;
#262 = DIRECTION ( 'NONE',  ( 1.000000000000000000, 0.000000000000000000, 0.000000000000000000 ) ) ;
#263 = LOCAL_TIME ( 14, 21, 23.00000000000000000, #18 ) ;
#264 = DIRECTION ( 'NONE',  ( 0.000000000000000000, 0.000000000000000000, -1.000000000000000000 ) ) ;
#265 = ADVANCED_FACE ( 'NONE', ( #168 ), #239, .T. ) ;
#266 = FACE_OUTER_BOUND ( 'NONE', #232, .T. ) ;
#267 = DIRECTION ( 'NONE',  ( 1.000000000000000000, 0.000000000000000000, 0.000000000000000000 ) ) ;
#268 = FACE_OUTER_BOUND ( 'NONE', #23, .T. ) ;
#269 = CARTESIAN_POINT ( 'NONE',  ( 0.000000000000000000, 0.000000000000000000, 7.000000000000000000 ) ) ;
#270 = EDGE_CURVE ( 'NONE', #284, #63, #163, .T. ) ;
#271 = DIRECTION ( 'NONE',  ( 1.000000000000000000, 0.000000000000000000, 0.000000000000000000 ) ) ;
#272 = EDGE_LOOP ( 'NONE', ( #274, #138, #177, #25 ) ) ;
#273 = PERSON_AND_ORGANIZATION_ROLE ( 'design_owner' ) ;
#274 = ORIENTED_EDGE ( 'NONE', *, *, #254, .F. ) ;
#275 = ADVANCED_FACE ( 'NONE', ( #266 ), #292, .T. ) ;
#276 = CC_DESIGN_APPROVAL ( #247, ( #55 ) ) ;
#277 = DATE_AND_TIME ( #255, #263 ) ;
#278 = VERTEX_POINT ( 'NONE', #289 ) ;
#279 = VECTOR ( 'NONE', #187, 1000.000000000000000 ) ;
#280 = ORIENTED_EDGE ( 'NONE', *, *, #241, .T. ) ;
#281 = CARTESIAN_POINT ( 'NONE',  ( 0.000000000000000000, 0.000000000000000000, 7.000000000000000000 ) ) ;
#282 = DIRECTION ( 'NONE',  ( 0.000000000000000000, 0.000000000000000000, 1.000000000000000000 ) ) ;
#283 = CIRCLE ( 'NONE', #257, 0.2000000000000005107 ) ;
#284 = VERTEX_POINT ( 'NONE', #188 ) ;
#285 = APPROVAL_PERSON_ORGANIZATION ( #37, #27, #298 ) ;
#286 = MANIFOLD_SOLID_BREP ( 'Zaoblit1', #70 ) ;
#287 = EDGE_LOOP ( 'NONE', ( #157, #253, #69, #159 ) ) ;
#288 = DIRECTION ( 'NONE',  ( -0.000000000000000000, -0.000000000000000000, -1.000000000000000000 ) ) ;
#289 = CARTESIAN_POINT ( 'NONE',  ( -8.000000000000000000, 0.000000000000000000, 7.199999999999998401 ) ) ;
#290 = AXIS2_PLACEMENT_3D ( 'NONE', #58, #32, #52 ) ;
#291 = FACE_OUTER_BOUND ( 'NONE', #287, .T. ) ;
#292 = PLANE ( 'NONE',  #91 ) ;
#293 = DIRECTION ( 'NONE',  ( 1.000000000000000000, 0.000000000000000000, 0.000000000000000000 ) ) ;
#294 = CIRCLE ( 'NONE', #156, 0.1999999999999996503 ) ;
#295 = AXIS2_PLACEMENT_3D ( 'NONE', #125, #150, #293 ) ;
#296 = COORDINATED_UNIVERSAL_TIME_OFFSET ( 1, 0, .AHEAD. ) ;
#297 = EDGE_LOOP ( 'NONE', ( #106, #259 ) ) ;
#298 = APPROVAL_ROLE ( '' ) ;
#299 = ADVANCED_FACE ( 'NONE', ( #291 ), #79, .T. ) ;
#300 = ORIENTED_EDGE ( 'NONE', *, *, #181, .F. ) ;
#301 = DATE_AND_TIME ( #109, #151 ) ;
#302 = FACE_BOUND ( 'NONE', #297, .T. ) ;
#303 = CARTESIAN_POINT ( 'NONE',  ( 0.000000000000000000, 0.000000000000000000, 7.000000000000000000 ) ) ;
#304 = DIRECTION ( 'NONE',  ( 0.000000000000000000, -1.000000000000000000, 0.000000000000000000 ) ) ;
#305 = FACE_OUTER_BOUND ( 'NONE', #160, .T. ) ;
#306 = EDGE_CURVE ( 'NONE', #35, #208, #251, .T. ) ;
#307 = DIRECTION ( 'NONE',  ( 1.000000000000000000, 0.000000000000000000, 0.000000000000000000 ) ) ;
ENDSEC;
END-ISO-10303-21;
