ISO-10303-21;
HEADER;
FILE_DESCRIPTION (( 'STEP AP203' ),
    '1' );
FILE_NAME ('d709.STEP',
    '2022-07-07T12:35:30',
    ( '' ),
    ( '' ),
    'SwSTEP 2.0',
    'SolidWorks 2019',
    '' );
FILE_SCHEMA (( 'CONFIG_CONTROL_DESIGN' ));
ENDSEC;

DATA;
#1 = CARTESIAN_POINT ( 'NONE',  ( 3.750000000000000000, 4.592425496802573972E-16, 320.0000000000000000 ) ) ;
#2 = ORIENTED_EDGE ( 'NONE', *, *, #23, .T. ) ;
#3 = DIRECTION ( 'NONE',  ( 1.000000000000000000, 0.000000000000000000, 0.000000000000000000 ) ) ;
#4 = CARTESIAN_POINT ( 'NONE',  ( -3.949999999999999734, 4.837354856632044071E-16, 5.199999999999982414 ) ) ;
#5 = CARTESIAN_POINT ( 'NONE',  ( -6.000000000000000888, 0.000000000000000000, 0.000000000000000000 ) ) ;
#6 = ORGANIZATION ( 'NEURÈENÝ', 'NEURÈENÝ', '' ) ;
#7 = PERSON_AND_ORGANIZATION_ROLE ( 'design_supplier' ) ;
#8 = CARTESIAN_POINT ( 'NONE',  ( 3.949999999999999734, 0.000000000000000000, 4.999999999999991118 ) ) ;
#9 = DATE_TIME_ROLE ( 'classification_date' ) ;
#10 = CARTESIAN_POINT ( 'NONE',  ( 6.000000000000000888, 7.347880794884120722E-16, 0.000000000000000000 ) ) ;
#11 = DIRECTION ( 'NONE',  ( 0.000000000000000000, 0.000000000000000000, 1.000000000000000000 ) ) ;
#12 = CYLINDRICAL_SURFACE ( 'NONE', #111, 6.000000000000000888 ) ;
#13 = LOCAL_TIME ( 14, 35, 30.00000000000000000, #135 ) ;
#14 = DATE_AND_TIME ( #273, #184 ) ;
#15 = EDGE_CURVE ( 'NONE', #65, #39, #21, .T. ) ;
#16 = DIRECTION ( 'NONE',  ( 0.000000000000000000, -1.000000000000000000, 0.000000000000000000 ) ) ;
#17 = AXIS2_PLACEMENT_3D ( 'NONE', #46, #307, #232 ) ;
#18 = EDGE_LOOP ( 'NONE', ( #85, #258, #162, #96 ) ) ;
#19 = FACE_BOUND ( 'NONE', #302, .T. ) ;
#20 = VERTEX_POINT ( 'NONE', #305 ) ;
#21 = CIRCLE ( 'NONE', #145, 3.750000000000000000 ) ;
#22 = CIRCLE ( 'NONE', #240, 3.750000000000000000 ) ;
#23 = EDGE_CURVE ( 'NONE', #299, #279, #140, .T. ) ;
#24 = DIRECTION ( 'NONE',  ( -0.000000000000000000, -0.000000000000000000, -1.000000000000000000 ) ) ;
#25 = CARTESIAN_POINT ( 'NONE',  ( 3.750000000000000000, 4.592425496802573972E-16, 5.199999999999982414 ) ) ;
#26 = DIRECTION ( 'NONE',  ( -0.000000000000000000, -0.000000000000000000, -1.000000000000000000 ) ) ;
#27 = DIRECTION ( 'NONE',  ( 1.000000000000000000, 0.000000000000000000, 0.000000000000000000 ) ) ;
#28 = AXIS2_PLACEMENT_3D ( 'NONE', #197, #123, #129 ) ;
#29 = APPROVAL_ROLE ( '' ) ;
#30 = MANIFOLD_SOLID_BREP ( 'Zaoblit1', #277 ) ;
#31 = PRODUCT_DEFINITION_SHAPE ( 'NONE', 'NONE',  #40 ) ;
#32 = CYLINDRICAL_SURFACE ( 'NONE', #304, 6.000000000000000888 ) ;
#33 = CARTESIAN_POINT ( 'NONE',  ( 0.000000000000000000, 0.000000000000000000, 5.199999999999982414 ) ) ;
#34 = CC_DESIGN_PERSON_AND_ORGANIZATION_ASSIGNMENT ( #156, #239, ( #40 ) ) ;
#35 = APPLICATION_PROTOCOL_DEFINITION ( 'international standard', 'config_control_design', 1994, #295 ) ;
#36 = DIRECTION ( 'NONE',  ( 0.000000000000000000, 0.000000000000000000, 1.000000000000000000 ) ) ;
#37 = CIRCLE ( 'NONE', #210, 3.750000000000000000 ) ;
#38 =( NAMED_UNIT ( * ) PLANE_ANGLE_UNIT ( ) SI_UNIT ( $, .RADIAN. ) );
#39 = VERTEX_POINT ( 'NONE', #1 ) ;
#40 = PRODUCT_DEFINITION ( 'NEZNÁMÝ', '', #189, #202 ) ;
#41 = ORIENTED_EDGE ( 'NONE', *, *, #15, .F. ) ;
#42 = CARTESIAN_POINT ( 'NONE',  ( 6.000000000000000888, 7.347880794884120722E-16, 5.000000000000000000 ) ) ;
#43 = CARTESIAN_POINT ( 'NONE',  ( 0.000000000000000000, 0.000000000000000000, 5.000000000000000000 ) ) ;
#44 = ORIENTED_EDGE ( 'NONE', *, *, #164, .T. ) ;
#45 = ADVANCED_BREP_SHAPE_REPRESENTATION ( 'd709', ( #30, #278 ), #205 ) ;
#46 = CARTESIAN_POINT ( 'NONE',  ( 0.000000000000000000, 0.000000000000000000, 0.000000000000000000 ) ) ;
#47 = APPROVAL_PERSON_ORGANIZATION ( #102, #63, #104 ) ;
#48 = DIRECTION ( 'NONE',  ( 1.000000000000000000, 0.000000000000000000, 0.000000000000000000 ) ) ;
#49 = DIRECTION ( 'NONE',  ( 1.000000000000000000, 0.000000000000000000, 0.000000000000000000 ) ) ;
#50 = CARTESIAN_POINT ( 'NONE',  ( 3.750000000000000000, 4.592425496802573972E-16, 320.0000000000000000 ) ) ;
#51 = CARTESIAN_POINT ( 'NONE',  ( 0.000000000000000000, 0.000000000000000000, 320.0000000000000000 ) ) ;
#52 = CALENDAR_DATE ( 2022, 7, 7 ) ;
#53 = DIRECTION ( 'NONE',  ( -1.000000000000000000, 1.224646799147353454E-16, 0.000000000000000000 ) ) ;
#54 = DATE_AND_TIME ( #181, #13 ) ;
#55 = EDGE_CURVE ( 'NONE', #142, #279, #280, .T. ) ;
#56 = DIRECTION ( 'NONE',  ( 0.000000000000000000, 0.000000000000000000, 1.000000000000000000 ) ) ;
#57 = AXIS2_PLACEMENT_3D ( 'NONE', #118, #260, #48 ) ;
#58 = ORIENTED_EDGE ( 'NONE', *, *, #195, .T. ) ;
#59 = EDGE_LOOP ( 'NONE', ( #44, #247 ) ) ;
#60 = AXIS2_PLACEMENT_3D ( 'NONE', #73, #241, #173 ) ;
#61 = APPROVAL ( #151, 'NEURÈENÝ' ) ;
#62 = ORIENTED_EDGE ( 'NONE', *, *, #179, .T. ) ;
#63 = APPROVAL ( #196, 'NEURÈENÝ' ) ;
#64 = ORIENTED_EDGE ( 'NONE', *, *, #137, .F. ) ;
#65 = VERTEX_POINT ( 'NONE', #285 ) ;
#66 = AXIS2_PLACEMENT_3D ( 'NONE', #148, #265, #27 ) ;
#67 = LOCAL_TIME ( 14, 35, 30.00000000000000000, #293 ) ;
#68 = CARTESIAN_POINT ( 'NONE',  ( -3.949999999999999734, 4.837354856632044071E-16, 4.999999999999991118 ) ) ;
#69 = ORIENTED_EDGE ( 'NONE', *, *, #255, .T. ) ;
#70 = UNCERTAINTY_MEASURE_WITH_UNIT (LENGTH_MEASURE( 1.000000000000000082E-05 ), #223, 'distance_accuracy_value', 'NONE');
#71 = VERTEX_POINT ( 'NONE', #68 ) ;
#72 = CIRCLE ( 'NONE', #261, 3.949999999999999734 ) ;
#73 = CARTESIAN_POINT ( 'NONE',  ( 0.000000000000000000, 0.000000000000000000, 320.0000000000000000 ) ) ;
#74 = FACE_OUTER_BOUND ( 'NONE', #136, .T. ) ;
#75 = CALENDAR_DATE ( 2022, 7, 7 ) ;
#76 = DIRECTION ( 'NONE',  ( 0.000000000000000000, 0.000000000000000000, 1.000000000000000000 ) ) ;
#77 = APPROVAL_DATE_TIME ( #266, #63 ) ;
#78 = PLANE ( 'NONE',  #253 ) ;
#79 = SECURITY_CLASSIFICATION_LEVEL ( 'unclassified' ) ;
#80 = EDGE_CURVE ( 'NONE', #142, #20, #221, .T. ) ;
#81 = FACE_OUTER_BOUND ( 'NONE', #121, .T. ) ;
#82 =( NAMED_UNIT ( * ) SI_UNIT ( $, .STERADIAN. ) SOLID_ANGLE_UNIT ( ) );
#83 = DATE_TIME_ROLE ( 'creation_date' ) ;
#84 = AXIS2_PLACEMENT_3D ( 'NONE', #147, #16, #115 ) ;
#85 = ORIENTED_EDGE ( 'NONE', *, *, #80, .F. ) ;
#86 = ORIENTED_EDGE ( 'NONE', *, *, #164, .F. ) ;
#87 = EDGE_LOOP ( 'NONE', ( #254, #58, #141, #64 ) ) ;
#88 = CC_DESIGN_PERSON_AND_ORGANIZATION_ASSIGNMENT ( #201, #244, ( #218 ) ) ;
#89 = ORIENTED_EDGE ( 'NONE', *, *, #55, .F. ) ;
#90 = AXIS2_PLACEMENT_3D ( 'NONE', #93, #211, #171 ) ;
#91 = TOROIDAL_SURFACE ( 'NONE', #108, 3.949999999999999734, 0.2000000000000000111 ) ;
#92 = ORIENTED_EDGE ( 'NONE', *, *, #113, .T. ) ;
#93 = CARTESIAN_POINT ( 'NONE',  ( 0.000000000000000000, 0.000000000000000000, 5.000000000000000000 ) ) ;
#94 = EDGE_CURVE ( 'NONE', #71, #275, #72, .T. ) ;
#95 = DIRECTION ( 'NONE',  ( 1.000000000000000000, 0.000000000000000000, 0.000000000000000000 ) ) ;
#96 = ORIENTED_EDGE ( 'NONE', *, *, #255, .F. ) ;
#97 = CARTESIAN_POINT ( 'NONE',  ( 6.000000000000000888, 7.347880794884120722E-16, 5.000000000000000000 ) ) ;
#98 = EDGE_CURVE ( 'NONE', #275, #71, #116, .T. ) ;
#99 = FACE_OUTER_BOUND ( 'NONE', #282, .T. ) ;
#100 = CIRCLE ( 'NONE', #84, 0.1999999999999996503 ) ;
#101 = CIRCLE ( 'NONE', #199, 0.1999999999999996503 ) ;
#102 = PERSON_AND_ORGANIZATION ( #226, #6 ) ;
#103 = FACE_OUTER_BOUND ( 'NONE', #163, .T. ) ;
#104 = APPROVAL_ROLE ( '' ) ;
#105 = CARTESIAN_POINT ( 'NONE',  ( 0.000000000000000000, 0.000000000000000000, 320.0000000000000000 ) ) ;
#106 = MECHANICAL_CONTEXT ( 'NONE', #295, 'mechanical' ) ;
#107 = CARTESIAN_POINT ( 'NONE',  ( 0.000000000000000000, 0.000000000000000000, 5.000000000000000000 ) ) ;
#108 = AXIS2_PLACEMENT_3D ( 'NONE', #288, #36, #243 ) ;
#109 = COORDINATED_UNIVERSAL_TIME_OFFSET ( 1, 0, .AHEAD. ) ;
#110 = CARTESIAN_POINT ( 'NONE',  ( 0.000000000000000000, 0.000000000000000000, 0.000000000000000000 ) ) ;
#111 = AXIS2_PLACEMENT_3D ( 'NONE', #107, #264, #180 ) ;
#112 = ORIENTED_EDGE ( 'NONE', *, *, #179, .F. ) ;
#113 = EDGE_CURVE ( 'NONE', #65, #166, #283, .T. ) ;
#114 = APPLICATION_CONTEXT ( 'configuration controlled 3d designs of mechanical parts and assemblies' ) ;
#115 = DIRECTION ( 'NONE',  ( 0.000000000000000000, 0.000000000000000000, -1.000000000000000000 ) ) ;
#116 = CIRCLE ( 'NONE', #252, 3.949999999999999734 ) ;
#117 = VECTOR ( 'NONE', #192, 1000.000000000000000 ) ;
#118 = CARTESIAN_POINT ( 'NONE',  ( 0.000000000000000000, 0.000000000000000000, 5.199999999999982414 ) ) ;
#119 = ORIENTED_EDGE ( 'NONE', *, *, #290, .T. ) ;
#120 = ORIENTED_EDGE ( 'NONE', *, *, #122, .T. ) ;
#121 = EDGE_LOOP ( 'NONE', ( #89, #86, #69, #2 ) ) ;
#122 = EDGE_CURVE ( 'NONE', #166, #185, #287, .T. ) ;
#123 = DIRECTION ( 'NONE',  ( 0.000000000000000000, 0.000000000000000000, 1.000000000000000000 ) ) ;
#124 = CC_DESIGN_PERSON_AND_ORGANIZATION_ASSIGNMENT ( #182, #220, ( #262 ) ) ;
#125 = FACE_OUTER_BOUND ( 'NONE', #18, .T. ) ;
#126 = DIRECTION ( 'NONE',  ( 1.000000000000000000, 0.000000000000000000, 0.000000000000000000 ) ) ;
#127 = AXIS2_PLACEMENT_3D ( 'NONE', #228, #281, #208 ) ;
#128 = AXIS2_PLACEMENT_3D ( 'NONE', #33, #289, #294 ) ;
#129 = DIRECTION ( 'NONE',  ( 1.000000000000000000, 0.000000000000000000, -0.000000000000000000 ) ) ;
#130 = APPROVAL_DATE_TIME ( #54, #284 ) ;
#131 = DIRECTION ( 'NONE',  ( -1.000000000000000000, 0.000000000000000000, 0.000000000000000000 ) ) ;
#132 = COORDINATED_UNIVERSAL_TIME_OFFSET ( 1, 0, .AHEAD. ) ;
#133 = DIRECTION ( 'NONE',  ( 0.000000000000000000, 0.000000000000000000, 1.000000000000000000 ) ) ;
#134 = DATE_AND_TIME ( #52, #248 ) ;
#135 = COORDINATED_UNIVERSAL_TIME_OFFSET ( 1, 0, .AHEAD. ) ;
#136 = EDGE_LOOP ( 'NONE', ( #112, #41, #92, #120 ) ) ;
#137 = EDGE_CURVE ( 'NONE', #185, #275, #100, .T. ) ;
#138 = ORIENTED_EDGE ( 'NONE', *, *, #152, .F. ) ;
#139 = FACE_OUTER_BOUND ( 'NONE', #59, .T. ) ;
#140 = CIRCLE ( 'NONE', #17, 6.000000000000000888 ) ;
#141 = ORIENTED_EDGE ( 'NONE', *, *, #98, .F. ) ;
#142 = VERTEX_POINT ( 'NONE', #42 ) ;
#143 = ADVANCED_FACE ( 'NONE', ( #19, #139 ), #256, .T. ) ;
#144 = EDGE_LOOP ( 'NONE', ( #225, #160, #246, #209 ) ) ;
#145 = AXIS2_PLACEMENT_3D ( 'NONE', #251, #165, #3 ) ;
#146 = APPROVAL_PERSON_ORGANIZATION ( #149, #284, #29 ) ;
#147 = CARTESIAN_POINT ( 'NONE',  ( 3.949999999999999734, 0.000000000000000000, 5.199999999999982414 ) ) ;
#148 = CARTESIAN_POINT ( 'NONE',  ( 0.000000000000000000, 0.000000000000000000, 5.000000000000000000 ) ) ;
#149 = PERSON_AND_ORGANIZATION ( #226, #6 ) ;
#150 = CARTESIAN_POINT ( 'NONE',  ( 0.000000000000000000, 0.000000000000000000, 0.000000000000000000 ) ) ;
#151 = APPROVAL_STATUS ( 'not_yet_approved' ) ;
#152 = EDGE_CURVE ( 'NONE', #279, #299, #300, .T. ) ;
#153 = CARTESIAN_POINT ( 'NONE',  ( -3.750000000000000000, 0.000000000000000000, 5.199999999999982414 ) ) ;
#154 = DIRECTION ( 'NONE',  ( 1.000000000000000000, 0.000000000000000000, 0.000000000000000000 ) ) ;
#155 = ADVANCED_FACE ( 'NONE', ( #103 ), #200, .T. ) ;
#156 = PERSON_AND_ORGANIZATION ( #226, #6 ) ;
#157 = CC_DESIGN_SECURITY_CLASSIFICATION ( #262, ( #189 ) ) ;
#158 = CC_DESIGN_PERSON_AND_ORGANIZATION_ASSIGNMENT ( #216, #7, ( #189 ) ) ;
#159 = EDGE_LOOP ( 'NONE', ( #169, #62, #207, #203 ) ) ;
#160 = ORIENTED_EDGE ( 'NONE', *, *, #259, .F. ) ;
#161 = VECTOR ( 'NONE', #292, 1000.000000000000000 ) ;
#162 = ORIENTED_EDGE ( 'NONE', *, *, #152, .T. ) ;
#163 = EDGE_LOOP ( 'NONE', ( #249, #119 ) ) ;
#164 = EDGE_CURVE ( 'NONE', #20, #142, #204, .T. ) ;
#165 = DIRECTION ( 'NONE',  ( 0.000000000000000000, 0.000000000000000000, 1.000000000000000000 ) ) ;
#166 = VERTEX_POINT ( 'NONE', #153 ) ;
#167 = AXIS2_PLACEMENT_3D ( 'NONE', #231, #56, #154 ) ;
#168 = DIRECTION ( 'NONE',  ( -0.000000000000000000, -0.000000000000000000, -1.000000000000000000 ) ) ;
#169 = ORIENTED_EDGE ( 'NONE', *, *, #290, .F. ) ;
#170 = ADVANCED_FACE ( 'NONE', ( #234 ), #233, .F. ) ;
#171 = DIRECTION ( 'NONE',  ( 1.000000000000000000, 0.000000000000000000, 0.000000000000000000 ) ) ;
#172 = CC_DESIGN_APPROVAL ( #63, ( #262 ) ) ;
#173 = DIRECTION ( 'NONE',  ( -1.000000000000000000, 0.000000000000000000, 0.000000000000000000 ) ) ;
#174 = CYLINDRICAL_SURFACE ( 'NONE', #60, 3.750000000000000000 ) ;
#175 = APPROVAL_STATUS ( 'not_yet_approved' ) ;
#176 = CYLINDRICAL_SURFACE ( 'NONE', #245, 3.750000000000000000 ) ;
#177 = APPLICATION_PROTOCOL_DEFINITION ( 'international standard', 'config_control_design', 1994, #114 ) ;
#178 = LINE ( 'NONE', #50, #161 ) ;
#179 = EDGE_CURVE ( 'NONE', #39, #185, #178, .T. ) ;
#180 = DIRECTION ( 'NONE',  ( -1.000000000000000000, 0.000000000000000000, 0.000000000000000000 ) ) ;
#181 = CALENDAR_DATE ( 2022, 7, 7 ) ;
#182 = PERSON_AND_ORGANIZATION ( #226, #6 ) ;
#183 = PRODUCT_RELATED_PRODUCT_CATEGORY ( 'detail', '', ( #218 ) ) ;
#184 = LOCAL_TIME ( 14, 35, 30.00000000000000000, #224 ) ;
#185 = VERTEX_POINT ( 'NONE', #25 ) ;
#186 = ORIENTED_EDGE ( 'NONE', *, *, #94, .T. ) ;
#187 = DIRECTION ( 'NONE',  ( -0.000000000000000000, -0.000000000000000000, -1.000000000000000000 ) ) ;
#188 = ORIENTED_EDGE ( 'NONE', *, *, #98, .T. ) ;
#189 = PRODUCT_DEFINITION_FORMATION_WITH_SPECIFIED_SOURCE ( 'LIBOVOLNÝ', '', #218, .NOT_KNOWN. ) ;
#190 = CARTESIAN_POINT ( 'NONE',  ( 0.000000000000000000, 0.000000000000000000, 5.000000000000000000 ) ) ;
#191 = CARTESIAN_POINT ( 'NONE',  ( -3.750000000000000000, 0.000000000000000000, 320.0000000000000000 ) ) ;
#192 = DIRECTION ( 'NONE',  ( -0.000000000000000000, -0.000000000000000000, -1.000000000000000000 ) ) ;
#193 = VECTOR ( 'NONE', #168, 1000.000000000000000 ) ;
#194 = LOCAL_TIME ( 14, 35, 30.00000000000000000, #109 ) ;
#195 = EDGE_CURVE ( 'NONE', #166, #71, #101, .T. ) ;
#196 = APPROVAL_STATUS ( 'not_yet_approved' ) ;
#197 = CARTESIAN_POINT ( 'NONE',  ( 0.000000000000000000, 0.000000000000000000, 320.0000000000000000 ) ) ;
#198 = APPROVAL_DATE_TIME ( #134, #61 ) ;
#199 = AXIS2_PLACEMENT_3D ( 'NONE', #4, #212, #53 ) ;
#200 = PLANE ( 'NONE',  #28 ) ;
#201 = PERSON_AND_ORGANIZATION ( #226, #6 ) ;
#202 = DESIGN_CONTEXT ( 'detailed design', #114, 'design' ) ;
#203 = ORIENTED_EDGE ( 'NONE', *, *, #113, .F. ) ;
#204 = CIRCLE ( 'NONE', #66, 6.000000000000000888 ) ;
#205 =( GEOMETRIC_REPRESENTATION_CONTEXT ( 3 ) GLOBAL_UNCERTAINTY_ASSIGNED_CONTEXT ( ( #70 ) ) GLOBAL_UNIT_ASSIGNED_CONTEXT ( ( #223, #38, #82 ) ) REPRESENTATION_CONTEXT ( 'NONE', 'WORKASPACE' ) );
#206 = DIRECTION ( 'NONE',  ( 1.000000000000000000, 0.000000000000000000, 0.000000000000000000 ) ) ;
#207 = ORIENTED_EDGE ( 'NONE', *, *, #259, .T. ) ;
#208 = DIRECTION ( 'NONE',  ( 1.000000000000000000, 0.000000000000000000, -0.000000000000000000 ) ) ;
#209 = ORIENTED_EDGE ( 'NONE', *, *, #94, .F. ) ;
#210 = AXIS2_PLACEMENT_3D ( 'NONE', #105, #133, #219 ) ;
#211 = DIRECTION ( 'NONE',  ( 0.000000000000000000, 0.000000000000000000, 1.000000000000000000 ) ) ;
#212 = DIRECTION ( 'NONE',  ( 1.224646799147353207E-16, 1.000000000000000000, -0.000000000000000000 ) ) ;
#213 = FACE_OUTER_BOUND ( 'NONE', #159, .T. ) ;
#214 = DATE_AND_TIME ( #75, #67 ) ;
#215 = CARTESIAN_POINT ( 'NONE',  ( -6.000000000000000888, 0.000000000000000000, 5.000000000000000000 ) ) ;
#216 = PERSON_AND_ORGANIZATION ( #226, #6 ) ;
#217 = DIRECTION ( 'NONE',  ( -1.000000000000000000, 0.000000000000000000, 0.000000000000000000 ) ) ;
#218 = PRODUCT ( 'd709', 'd709', '', ( #106 ) ) ;
#219 = DIRECTION ( 'NONE',  ( 1.000000000000000000, 0.000000000000000000, 0.000000000000000000 ) ) ;
#220 = PERSON_AND_ORGANIZATION_ROLE ( 'classification_officer' ) ;
#221 = CIRCLE ( 'NONE', #90, 6.000000000000000888 ) ;
#222 = CC_DESIGN_APPROVAL ( #61, ( #40 ) ) ;
#223 =( LENGTH_UNIT ( ) NAMED_UNIT ( * ) SI_UNIT ( .MILLI., .METRE. ) );
#224 = COORDINATED_UNIVERSAL_TIME_OFFSET ( 1, 0, .AHEAD. ) ;
#225 = ORIENTED_EDGE ( 'NONE', *, *, #195, .F. ) ;
#226 = PERSON ( 'NEURÈENÝ', 'NEURÈENÝ', 'NEURÈENÝ', ('NEURÈENÝ'), ('NEURÈENÝ'), ('NEURÈENÝ') ) ;
#227 = CC_DESIGN_PERSON_AND_ORGANIZATION_ASSIGNMENT ( #298, #237, ( #189 ) ) ;
#228 = CARTESIAN_POINT ( 'NONE',  ( 0.000000000000000000, 0.000000000000000000, 5.000000000000000000 ) ) ;
#229 = DIRECTION ( 'NONE',  ( -0.000000000000000000, -0.000000000000000000, -1.000000000000000000 ) ) ;
#230 = ADVANCED_FACE ( 'NONE', ( #99 ), #78, .F. ) ;
#231 = CARTESIAN_POINT ( 'NONE',  ( 0.000000000000000000, 0.000000000000000000, 0.000000000000000000 ) ) ;
#232 = DIRECTION ( 'NONE',  ( 1.000000000000000000, 0.000000000000000000, 0.000000000000000000 ) ) ;
#233 = TOROIDAL_SURFACE ( 'NONE', #128, 3.949999999999999734, 0.2000000000000000111 ) ;
#234 = FACE_OUTER_BOUND ( 'NONE', #144, .T. ) ;
#235 = CC_DESIGN_DATE_AND_TIME_ASSIGNMENT ( #214, #83, ( #40 ) ) ;
#236 = DIRECTION ( 'NONE',  ( 1.000000000000000000, 0.000000000000000000, -0.000000000000000000 ) ) ;
#237 = PERSON_AND_ORGANIZATION_ROLE ( 'creator' ) ;
#238 = LINE ( 'NONE', #215, #117 ) ;
#239 = PERSON_AND_ORGANIZATION_ROLE ( 'creator' ) ;
#240 = AXIS2_PLACEMENT_3D ( 'NONE', #286, #76, #49 ) ;
#241 = DIRECTION ( 'NONE',  ( -0.000000000000000000, -0.000000000000000000, -1.000000000000000000 ) ) ;
#242 = CARTESIAN_POINT ( 'NONE',  ( 0.000000000000000000, 0.000000000000000000, 5.000000000000000000 ) ) ;
#243 = DIRECTION ( 'NONE',  ( 1.000000000000000000, 0.000000000000000000, 0.000000000000000000 ) ) ;
#244 = PERSON_AND_ORGANIZATION_ROLE ( 'design_owner' ) ;
#245 = AXIS2_PLACEMENT_3D ( 'NONE', #51, #26, #131 ) ;
#246 = ORIENTED_EDGE ( 'NONE', *, *, #137, .T. ) ;
#247 = ORIENTED_EDGE ( 'NONE', *, *, #80, .T. ) ;
#248 = LOCAL_TIME ( 14, 35, 30.00000000000000000, #132 ) ;
#249 = ORIENTED_EDGE ( 'NONE', *, *, #15, .T. ) ;
#250 = ORIENTED_EDGE ( 'NONE', *, *, #23, .F. ) ;
#251 = CARTESIAN_POINT ( 'NONE',  ( 0.000000000000000000, 0.000000000000000000, 320.0000000000000000 ) ) ;
#252 = AXIS2_PLACEMENT_3D ( 'NONE', #190, #229, #95 ) ;
#253 = AXIS2_PLACEMENT_3D ( 'NONE', #150, #268, #236 ) ;
#254 = ORIENTED_EDGE ( 'NONE', *, *, #122, .F. ) ;
#255 = EDGE_CURVE ( 'NONE', #20, #299, #238, .T. ) ;
#256 = PLANE ( 'NONE',  #127 ) ;
#257 = CC_DESIGN_DATE_AND_TIME_ASSIGNMENT ( #14, #9, ( #262 ) ) ;
#258 = ORIENTED_EDGE ( 'NONE', *, *, #55, .T. ) ;
#259 = EDGE_CURVE ( 'NONE', #185, #166, #22, .T. ) ;
#260 = DIRECTION ( 'NONE',  ( 0.000000000000000000, 0.000000000000000000, 1.000000000000000000 ) ) ;
#261 = AXIS2_PLACEMENT_3D ( 'NONE', #43, #187, #206 ) ;
#262 = SECURITY_CLASSIFICATION ( '', '', #79 ) ;
#263 = DIRECTION ( 'NONE',  ( -0.000000000000000000, -0.000000000000000000, -1.000000000000000000 ) ) ;
#264 = DIRECTION ( 'NONE',  ( -0.000000000000000000, -0.000000000000000000, -1.000000000000000000 ) ) ;
#265 = DIRECTION ( 'NONE',  ( 0.000000000000000000, 0.000000000000000000, 1.000000000000000000 ) ) ;
#266 = DATE_AND_TIME ( #271, #194 ) ;
#267 = ADVANCED_FACE ( 'NONE', ( #213 ), #176, .T. ) ;
#268 = DIRECTION ( 'NONE',  ( 0.000000000000000000, 0.000000000000000000, 1.000000000000000000 ) ) ;
#269 = APPROVAL_ROLE ( '' ) ;
#270 = FACE_OUTER_BOUND ( 'NONE', #87, .T. ) ;
#271 = CALENDAR_DATE ( 2022, 7, 7 ) ;
#272 = ADVANCED_FACE ( 'NONE', ( #74 ), #174, .T. ) ;
#273 = CALENDAR_DATE ( 2022, 7, 7 ) ;
#274 = APPROVAL_PERSON_ORGANIZATION ( #291, #61, #269 ) ;
#275 = VERTEX_POINT ( 'NONE', #8 ) ;
#276 = ADVANCED_FACE ( 'NONE', ( #125 ), #32, .T. ) ;
#277 = CLOSED_SHELL ( 'NONE', ( #306, #267, #276, #297, #143, #230, #272, #155, #170 ) ) ;
#278 = AXIS2_PLACEMENT_3D ( 'NONE', #110, #11, #126 ) ;
#279 = VERTEX_POINT ( 'NONE', #10 ) ;
#280 = LINE ( 'NONE', #97, #303 ) ;
#281 = DIRECTION ( 'NONE',  ( 0.000000000000000000, 0.000000000000000000, 1.000000000000000000 ) ) ;
#282 = EDGE_LOOP ( 'NONE', ( #250, #138 ) ) ;
#283 = LINE ( 'NONE', #191, #193 ) ;
#284 = APPROVAL ( #175, 'NEURÈENÝ' ) ;
#285 = CARTESIAN_POINT ( 'NONE',  ( -3.750000000000000000, 0.000000000000000000, 320.0000000000000000 ) ) ;
#286 = CARTESIAN_POINT ( 'NONE',  ( 0.000000000000000000, 0.000000000000000000, 5.199999999999982414 ) ) ;
#287 = CIRCLE ( 'NONE', #57, 3.750000000000000000 ) ;
#288 = CARTESIAN_POINT ( 'NONE',  ( 0.000000000000000000, 0.000000000000000000, 5.199999999999982414 ) ) ;
#289 = DIRECTION ( 'NONE',  ( 0.000000000000000000, 0.000000000000000000, 1.000000000000000000 ) ) ;
#290 = EDGE_CURVE ( 'NONE', #39, #65, #37, .T. ) ;
#291 = PERSON_AND_ORGANIZATION ( #226, #6 ) ;
#292 = DIRECTION ( 'NONE',  ( -0.000000000000000000, -0.000000000000000000, -1.000000000000000000 ) ) ;
#293 = COORDINATED_UNIVERSAL_TIME_OFFSET ( 1, 0, .AHEAD. ) ;
#294 = DIRECTION ( 'NONE',  ( 1.000000000000000000, 0.000000000000000000, 0.000000000000000000 ) ) ;
#295 = APPLICATION_CONTEXT ( 'configuration controlled 3d designs of mechanical parts and assemblies' ) ;
#296 = SHAPE_DEFINITION_REPRESENTATION ( #31, #45 ) ;
#297 = ADVANCED_FACE ( 'NONE', ( #81 ), #12, .T. ) ;
#298 = PERSON_AND_ORGANIZATION ( #226, #6 ) ;
#299 = VERTEX_POINT ( 'NONE', #5 ) ;
#300 = CIRCLE ( 'NONE', #167, 6.000000000000000888 ) ;
#301 = CC_DESIGN_APPROVAL ( #284, ( #189 ) ) ;
#302 = EDGE_LOOP ( 'NONE', ( #188, #186 ) ) ;
#303 = VECTOR ( 'NONE', #24, 1000.000000000000000 ) ;
#304 = AXIS2_PLACEMENT_3D ( 'NONE', #242, #263, #217 ) ;
#305 = CARTESIAN_POINT ( 'NONE',  ( -6.000000000000000888, 0.000000000000000000, 5.000000000000000000 ) ) ;
#306 = ADVANCED_FACE ( 'NONE', ( #270 ), #91, .F. ) ;
#307 = DIRECTION ( 'NONE',  ( 0.000000000000000000, 0.000000000000000000, 1.000000000000000000 ) ) ;
ENDSEC;
END-ISO-10303-21;
