ISO-10303-21;
HEADER;
FILE_DESCRIPTION (( 'STEP AP203' ),
    '1' );
FILE_NAME ('57a2.STEP',
    '2022-07-07T12:28:03',
    ( '' ),
    ( '' ),
    'SwSTEP 2.0',
    'SolidWorks 2019',
    '' );
FILE_SCHEMA (( 'CONFIG_CONTROL_DESIGN' ));
ENDSEC;

DATA;
#1 = AXIS2_PLACEMENT_3D ( 'NONE', #101, #77, #2 ) ;
#2 = DIRECTION ( 'NONE',  ( 1.000000000000000000, 0.000000000000000000, 0.000000000000000000 ) ) ;
#3 = DIRECTION ( 'NONE',  ( 0.000000000000000000, 0.000000000000000000, 1.000000000000000000 ) ) ;
#4 = EDGE_CURVE ( 'NONE', #24, #129, #6, .T. ) ;
#5 = CARTESIAN_POINT ( 'NONE',  ( -5.000000000000000000, 0.000000000000000000, 205.0000000000000284 ) ) ;
#6 = CIRCLE ( 'NONE', #175, 0.1999999999999996503 ) ;
#7 = TOROIDAL_SURFACE ( 'NONE', #265, 5.200000000000000178, 0.2000000000000000111 ) ;
#8 = AXIS2_PLACEMENT_3D ( 'NONE', #149, #80, #193 ) ;
#9 = DIRECTION ( 'NONE',  ( 0.000000000000000000, 0.000000000000000000, 1.000000000000000000 ) ) ;
#10 = DIRECTION ( 'NONE',  ( -0.000000000000000000, -0.000000000000000000, -1.000000000000000000 ) ) ;
#11 = EDGE_LOOP ( 'NONE', ( #178, #48, #196, #230 ) ) ;
#12 = PERSON ( 'NEURÈENÝ', 'NEURÈENÝ', 'NEURÈENÝ', ('NEURÈENÝ'), ('NEURÈENÝ'), ('NEURÈENÝ') ) ;
#13 = AXIS2_PLACEMENT_3D ( 'NONE', #209, #186, #251 ) ;
#14 =( NAMED_UNIT ( * ) PLANE_ANGLE_UNIT ( ) SI_UNIT ( $, .RADIAN. ) );
#15 = ORIENTED_EDGE ( 'NONE', *, *, #32, .T. ) ;
#16 = AXIS2_PLACEMENT_3D ( 'NONE', #215, #9, #56 ) ;
#17 = ORIENTED_EDGE ( 'NONE', *, *, #207, .F. ) ;
#18 = APPROVAL_DATE_TIME ( #50, #67 ) ;
#19 = EDGE_CURVE ( 'NONE', #292, #270, #31, .T. ) ;
#20 = APPROVAL_DATE_TIME ( #44, #127 ) ;
#21 = FACE_OUTER_BOUND ( 'NONE', #140, .T. ) ;
#22 = COORDINATED_UNIVERSAL_TIME_OFFSET ( 1, 0, .AHEAD. ) ;
#23 = AXIS2_PLACEMENT_3D ( 'NONE', #240, #283, #259 ) ;
#24 = VERTEX_POINT ( 'NONE', #69 ) ;
#25 = LOCAL_TIME ( 14, 28, 3.000000000000000000, #30 ) ;
#26 = PERSON_AND_ORGANIZATION_ROLE ( 'creator' ) ;
#27 = DIRECTION ( 'NONE',  ( 1.000000000000000000, 0.000000000000000000, 0.000000000000000000 ) ) ;
#28 = DIRECTION ( 'NONE',  ( 0.000000000000000000, 0.000000000000000000, 1.000000000000000000 ) ) ;
#29 = FACE_OUTER_BOUND ( 'NONE', #249, .T. ) ;
#30 = COORDINATED_UNIVERSAL_TIME_OFFSET ( 1, 0, .AHEAD. ) ;
#31 = LINE ( 'NONE', #134, #46 ) ;
#32 = EDGE_CURVE ( 'NONE', #24, #304, #145, .T. ) ;
#33 = CIRCLE ( 'NONE', #234, 5.200000000000000178 ) ;
#34 = DIRECTION ( 'NONE',  ( 0.000000000000000000, 0.000000000000000000, 1.000000000000000000 ) ) ;
#35 = DIRECTION ( 'NONE',  ( 1.000000000000000000, 0.000000000000000000, -0.000000000000000000 ) ) ;
#36 = DIRECTION ( 'NONE',  ( -0.000000000000000000, -0.000000000000000000, -1.000000000000000000 ) ) ;
#37 = DIRECTION ( 'NONE',  ( -1.000000000000000000, 0.000000000000000000, 0.000000000000000000 ) ) ;
#38 = LOCAL_TIME ( 14, 28, 3.000000000000000000, #22 ) ;
#39 = CC_DESIGN_PERSON_AND_ORGANIZATION_ASSIGNMENT ( #303, #26, ( #81 ) ) ;
#40 = CIRCLE ( 'NONE', #243, 5.200000000000000178 ) ;
#41 = ADVANCED_FACE ( 'NONE', ( #91, #188 ), #109, .T. ) ;
#42 = AXIS2_PLACEMENT_3D ( 'NONE', #142, #28, #182 ) ;
#43 = DIRECTION ( 'NONE',  ( -1.000000000000000000, 1.224646799147353454E-16, 0.000000000000000000 ) ) ;
#44 = DATE_AND_TIME ( #272, #189 ) ;
#45 = LINE ( 'NONE', #205, #221 ) ;
#46 = VECTOR ( 'NONE', #160, 1000.000000000000000 ) ;
#47 = CALENDAR_DATE ( 2022, 7, 7 ) ;
#48 = ORIENTED_EDGE ( 'NONE', *, *, #98, .F. ) ;
#49 = ORIENTED_EDGE ( 'NONE', *, *, #19, .T. ) ;
#50 = DATE_AND_TIME ( #163, #25 ) ;
#51 = ORIENTED_EDGE ( 'NONE', *, *, #305, .T. ) ;
#52 = FACE_OUTER_BOUND ( 'NONE', #155, .T. ) ;
#53 = DIRECTION ( 'NONE',  ( 1.000000000000000000, 0.000000000000000000, 0.000000000000000000 ) ) ;
#54 = FACE_OUTER_BOUND ( 'NONE', #220, .T. ) ;
#55 = DESIGN_CONTEXT ( 'detailed design', #159, 'design' ) ;
#56 = DIRECTION ( 'NONE',  ( 1.000000000000000000, 0.000000000000000000, 0.000000000000000000 ) ) ;
#57 = APPROVAL ( #222, 'NEURÈENÝ' ) ;
#58 = CARTESIAN_POINT ( 'NONE',  ( 5.000000000000000000, 6.123233995736766282E-16, 205.0000000000000284 ) ) ;
#59 = ADVANCED_FACE ( 'NONE', ( #180 ), #7, .F. ) ;
#60 = ORIENTED_EDGE ( 'NONE', *, *, #305, .F. ) ;
#61 = UNCERTAINTY_MEASURE_WITH_UNIT (LENGTH_MEASURE( 1.000000000000000082E-05 ), #79, 'distance_accuracy_value', 'NONE');
#62 =( NAMED_UNIT ( * ) SI_UNIT ( $, .STERADIAN. ) SOLID_ANGLE_UNIT ( ) );
#63 = SECURITY_CLASSIFICATION_LEVEL ( 'unclassified' ) ;
#64 = CARTESIAN_POINT ( 'NONE',  ( 0.000000000000000000, 0.000000000000000000, 5.200000000000009948 ) ) ;
#65 = MECHANICAL_CONTEXT ( 'NONE', #187, 'mechanical' ) ;
#66 = DIRECTION ( 'NONE',  ( 1.000000000000000000, 0.000000000000000000, 0.000000000000000000 ) ) ;
#67 = APPROVAL ( #143, 'NEURÈENÝ' ) ;
#68 = DIRECTION ( 'NONE',  ( 0.000000000000000000, 0.000000000000000000, 1.000000000000000000 ) ) ;
#69 = CARTESIAN_POINT ( 'NONE',  ( -5.000000000000000000, 0.000000000000000000, 5.200000000000009948 ) ) ;
#70 = CIRCLE ( 'NONE', #150, 8.000000000000000000 ) ;
#71 = APPROVAL_STATUS ( 'not_yet_approved' ) ;
#72 = CARTESIAN_POINT ( 'NONE',  ( 0.000000000000000000, 0.000000000000000000, 5.000000000000000000 ) ) ;
#73 = CARTESIAN_POINT ( 'NONE',  ( -5.200000000000000178, 6.368163355566236381E-16, 5.000000000000005329 ) ) ;
#74 = ADVANCED_FACE ( 'NONE', ( #21 ), #299, .T. ) ;
#75 = FACE_OUTER_BOUND ( 'NONE', #144, .T. ) ;
#76 = PRODUCT ( '57a2', '57a2', '', ( #65 ) ) ;
#77 = DIRECTION ( 'NONE',  ( 0.000000000000000000, 0.000000000000000000, 1.000000000000000000 ) ) ;
#78 = CC_DESIGN_PERSON_AND_ORGANIZATION_ASSIGNMENT ( #133, #204, ( #141 ) ) ;
#79 =( LENGTH_UNIT ( ) NAMED_UNIT ( * ) SI_UNIT ( .MILLI., .METRE. ) );
#80 = DIRECTION ( 'NONE',  ( 0.000000000000000000, 0.000000000000000000, 1.000000000000000000 ) ) ;
#81 = PRODUCT_DEFINITION ( 'NEZNÁMÝ', '', #93, #55 ) ;
#82 = EDGE_LOOP ( 'NONE', ( #181, #85 ) ) ;
#83 = ORIENTED_EDGE ( 'NONE', *, *, #179, .F. ) ;
#84 = MANIFOLD_SOLID_BREP ( 'Zaoblit1', #137 ) ;
#85 = ORIENTED_EDGE ( 'NONE', *, *, #258, .T. ) ;
#86 = PERSON_AND_ORGANIZATION ( #12, #156 ) ;
#87 = CYLINDRICAL_SURFACE ( 'NONE', #120, 8.000000000000000000 ) ;
#88 = AXIS2_PLACEMENT_3D ( 'NONE', #203, #68, #92 ) ;
#89 = DIRECTION ( 'NONE',  ( -0.000000000000000000, -0.000000000000000000, -1.000000000000000000 ) ) ;
#90 = ORIENTED_EDGE ( 'NONE', *, *, #285, .T. ) ;
#91 = FACE_BOUND ( 'NONE', #82, .T. ) ;
#92 = DIRECTION ( 'NONE',  ( 1.000000000000000000, 0.000000000000000000, -0.000000000000000000 ) ) ;
#93 = PRODUCT_DEFINITION_FORMATION_WITH_SPECIFIED_SOURCE ( 'LIBOVOLNÝ', '', #76, .NOT_KNOWN. ) ;
#94 = ADVANCED_FACE ( 'NONE', ( #277 ), #87, .T. ) ;
#95 = CARTESIAN_POINT ( 'NONE',  ( 0.000000000000000000, 0.000000000000000000, 5.200000000000009948 ) ) ;
#96 = DIRECTION ( 'NONE',  ( 1.000000000000000000, 0.000000000000000000, 0.000000000000000000 ) ) ;
#97 = CARTESIAN_POINT ( 'NONE',  ( 5.200000000000000178, 0.000000000000000000, 5.200000000000009948 ) ) ;
#98 = EDGE_CURVE ( 'NONE', #269, #292, #238, .T. ) ;
#99 = APPROVAL_PERSON_ORGANIZATION ( #135, #127, #224 ) ;
#100 = DIRECTION ( 'NONE',  ( -0.000000000000000000, -0.000000000000000000, -1.000000000000000000 ) ) ;
#101 = CARTESIAN_POINT ( 'NONE',  ( 0.000000000000000000, 0.000000000000000000, 205.0000000000000284 ) ) ;
#102 = ADVANCED_FACE ( 'NONE', ( #29 ), #158, .T. ) ;
#103 = ORIENTED_EDGE ( 'NONE', *, *, #225, .F. ) ;
#104 = CIRCLE ( 'NONE', #162, 5.000000000000000000 ) ;
#105 = ORIENTED_EDGE ( 'NONE', *, *, #132, .F. ) ;
#106 = APPROVAL_ROLE ( '' ) ;
#107 = ORIENTED_EDGE ( 'NONE', *, *, #184, .T. ) ;
#108 = CALENDAR_DATE ( 2022, 7, 7 ) ;
#109 = PLANE ( 'NONE',  #88 ) ;
#110 = AXIS2_PLACEMENT_3D ( 'NONE', #97, #288, #235 ) ;
#111 = LOCAL_TIME ( 14, 28, 3.000000000000000000, #301 ) ;
#112 = CARTESIAN_POINT ( 'NONE',  ( 0.000000000000000000, 0.000000000000000000, 5.000000000000000000 ) ) ;
#113 = PERSON_AND_ORGANIZATION ( #12, #156 ) ;
#114 = ORIENTED_EDGE ( 'NONE', *, *, #217, .F. ) ;
#115 = DIRECTION ( 'NONE',  ( 0.000000000000000000, 0.000000000000000000, 1.000000000000000000 ) ) ;
#116 = CARTESIAN_POINT ( 'NONE',  ( 0.000000000000000000, 0.000000000000000000, 5.000000000000000000 ) ) ;
#117 = CARTESIAN_POINT ( 'NONE',  ( 8.000000000000000000, 9.797174393178825657E-16, 5.000000000000000000 ) ) ;
#118 = CC_DESIGN_DATE_AND_TIME_ASSIGNMENT ( #139, #227, ( #141 ) ) ;
#119 = CYLINDRICAL_SURFACE ( 'NONE', #197, 5.000000000000000000 ) ;
#120 = AXIS2_PLACEMENT_3D ( 'NONE', #112, #89, #253 ) ;
#121 = DIRECTION ( 'NONE',  ( 0.000000000000000000, 0.000000000000000000, 1.000000000000000000 ) ) ;
#122 = EDGE_CURVE ( 'NONE', #153, #304, #45, .T. ) ;
#123 = VERTEX_POINT ( 'NONE', #279 ) ;
#124 = AXIS2_PLACEMENT_3D ( 'NONE', #72, #302, #297 ) ;
#125 = AXIS2_PLACEMENT_3D ( 'NONE', #214, #115, #151 ) ;
#126 = APPROVAL_PERSON_ORGANIZATION ( #231, #67, #256 ) ;
#127 = APPROVAL ( #71, 'NEURÈENÝ' ) ;
#128 = VERTEX_POINT ( 'NONE', #239 ) ;
#129 = VERTEX_POINT ( 'NONE', #73 ) ;
#130 = CIRCLE ( 'NONE', #23, 8.000000000000000000 ) ;
#131 = COORDINATED_UNIVERSAL_TIME_OFFSET ( 1, 0, .AHEAD. ) ;
#132 = EDGE_CURVE ( 'NONE', #232, #270, #130, .T. ) ;
#133 = PERSON_AND_ORGANIZATION ( #12, #156 ) ;
#134 = CARTESIAN_POINT ( 'NONE',  ( 8.000000000000000000, 9.797174393178825657E-16, 5.000000000000000000 ) ) ;
#135 = PERSON_AND_ORGANIZATION ( #12, #156 ) ;
#136 = EDGE_LOOP ( 'NONE', ( #154, #289, #114, #245 ) ) ;
#137 = CLOSED_SHELL ( 'NONE', ( #59, #262, #74, #94, #41, #200, #102, #166, #191 ) ) ;
#138 = AXIS2_PLACEMENT_3D ( 'NONE', #183, #211, #27 ) ;
#139 = DATE_AND_TIME ( #47, #111 ) ;
#140 = EDGE_LOOP ( 'NONE', ( #273, #49, #257, #103 ) ) ;
#141 = SECURITY_CLASSIFICATION ( '', '', #63 ) ;
#142 = CARTESIAN_POINT ( 'NONE',  ( 0.000000000000000000, 0.000000000000000000, 0.000000000000000000 ) ) ;
#143 = APPROVAL_STATUS ( 'not_yet_approved' ) ;
#144 = EDGE_LOOP ( 'NONE', ( #105, #218 ) ) ;
#145 = CIRCLE ( 'NONE', #138, 5.000000000000000000 ) ;
#146 = DIRECTION ( 'NONE',  ( -0.000000000000000000, -0.000000000000000000, -1.000000000000000000 ) ) ;
#147 = LINE ( 'NONE', #165, #219 ) ;
#148 = CARTESIAN_POINT ( 'NONE',  ( 5.000000000000000000, 6.123233995736766282E-16, 5.200000000000009948 ) ) ;
#149 = CARTESIAN_POINT ( 'NONE',  ( 0.000000000000000000, 0.000000000000000000, 5.200000000000009948 ) ) ;
#150 = AXIS2_PLACEMENT_3D ( 'NONE', #264, #121, #53 ) ;
#151 = DIRECTION ( 'NONE',  ( 1.000000000000000000, 0.000000000000000000, -0.000000000000000000 ) ) ;
#152 = ORIENTED_EDGE ( 'NONE', *, *, #258, .F. ) ;
#153 = VERTEX_POINT ( 'NONE', #58 ) ;
#154 = ORIENTED_EDGE ( 'NONE', *, *, #32, .F. ) ;
#155 = EDGE_LOOP ( 'NONE', ( #293, #242, #107, #152 ) ) ;
#156 = ORGANIZATION ( 'NEURÈENÝ', 'NEURÈENÝ', '' ) ;
#157 = CC_DESIGN_PERSON_AND_ORGANIZATION_ASSIGNMENT ( #86, #306, ( #93 ) ) ;
#158 = CYLINDRICAL_SURFACE ( 'NONE', #13, 5.000000000000000000 ) ;
#159 = APPLICATION_CONTEXT ( 'configuration controlled 3d designs of mechanical parts and assemblies' ) ;
#160 = DIRECTION ( 'NONE',  ( -0.000000000000000000, -0.000000000000000000, -1.000000000000000000 ) ) ;
#161 = ORIENTED_EDGE ( 'NONE', *, *, #237, .T. ) ;
#162 = AXIS2_PLACEMENT_3D ( 'NONE', #95, #34, #287 ) ;
#163 = CALENDAR_DATE ( 2022, 7, 7 ) ;
#164 = ORIENTED_EDGE ( 'NONE', *, *, #207, .T. ) ;
#165 = CARTESIAN_POINT ( 'NONE',  ( -8.000000000000000000, 0.000000000000000000, 5.000000000000000000 ) ) ;
#166 = ADVANCED_FACE ( 'NONE', ( #192 ), #195, .T. ) ;
#167 = CARTESIAN_POINT ( 'NONE',  ( 8.000000000000000000, 9.797174393178825657E-16, 0.000000000000000000 ) ) ;
#168 = CC_DESIGN_APPROVAL ( #67, ( #141 ) ) ;
#169 = DIRECTION ( 'NONE',  ( 1.000000000000000000, 0.000000000000000000, 0.000000000000000000 ) ) ;
#170 = CARTESIAN_POINT ( 'NONE',  ( 0.000000000000000000, 0.000000000000000000, 205.0000000000000284 ) ) ;
#171 = LINE ( 'NONE', #5, #247 ) ;
#172 = CC_DESIGN_SECURITY_CLASSIFICATION ( #141, ( #93 ) ) ;
#173 = EDGE_LOOP ( 'NONE', ( #164, #51 ) ) ;
#174 = CC_DESIGN_PERSON_AND_ORGANIZATION_ASSIGNMENT ( #201, #296, ( #93 ) ) ;
#175 = AXIS2_PLACEMENT_3D ( 'NONE', #307, #228, #43 ) ;
#176 = ORIENTED_EDGE ( 'NONE', *, *, #179, .T. ) ;
#177 = AXIS2_PLACEMENT_3D ( 'NONE', #286, #266, #35 ) ;
#178 = ORIENTED_EDGE ( 'NONE', *, *, #19, .F. ) ;
#179 = EDGE_CURVE ( 'NONE', #128, #24, #171, .T. ) ;
#180 = FACE_OUTER_BOUND ( 'NONE', #136, .T. ) ;
#181 = ORIENTED_EDGE ( 'NONE', *, *, #217, .T. ) ;
#182 = DIRECTION ( 'NONE',  ( 1.000000000000000000, 0.000000000000000000, 0.000000000000000000 ) ) ;
#183 = CARTESIAN_POINT ( 'NONE',  ( 0.000000000000000000, 0.000000000000000000, 5.200000000000009948 ) ) ;
#184 = EDGE_CURVE ( 'NONE', #304, #123, #290, .T. ) ;
#185 = COORDINATED_UNIVERSAL_TIME_OFFSET ( 1, 0, .AHEAD. ) ;
#186 = DIRECTION ( 'NONE',  ( -0.000000000000000000, -0.000000000000000000, -1.000000000000000000 ) ) ;
#187 = APPLICATION_CONTEXT ( 'configuration controlled 3d designs of mechanical parts and assemblies' ) ;
#188 = FACE_OUTER_BOUND ( 'NONE', #295, .T. ) ;
#189 = LOCAL_TIME ( 14, 28, 3.000000000000000000, #131 ) ;
#190 = DIRECTION ( 'NONE',  ( 1.000000000000000000, 0.000000000000000000, 0.000000000000000000 ) ) ;
#191 = ADVANCED_FACE ( 'NONE', ( #52 ), #300, .F. ) ;
#192 = FACE_OUTER_BOUND ( 'NONE', #173, .T. ) ;
#193 = DIRECTION ( 'NONE',  ( 1.000000000000000000, 0.000000000000000000, 0.000000000000000000 ) ) ;
#194 = CC_DESIGN_APPROVAL ( #127, ( #81 ) ) ;
#195 = PLANE ( 'NONE',  #125 ) ;
#196 = ORIENTED_EDGE ( 'NONE', *, *, #225, .T. ) ;
#197 = AXIS2_PLACEMENT_3D ( 'NONE', #170, #100, #37 ) ;
#198 = ORIENTED_EDGE ( 'NONE', *, *, #122, .T. ) ;
#199 = ADVANCED_BREP_SHAPE_REPRESENTATION ( '57a2', ( #84, #42 ), #291 ) ;
#200 = ADVANCED_FACE ( 'NONE', ( #75 ), #236, .F. ) ;
#201 = PERSON_AND_ORGANIZATION ( #12, #156 ) ;
#202 = DIRECTION ( 'NONE',  ( 0.000000000000000000, 0.000000000000000000, 1.000000000000000000 ) ) ;
#203 = CARTESIAN_POINT ( 'NONE',  ( 0.000000000000000000, 0.000000000000000000, 5.000000000000000000 ) ) ;
#204 = PERSON_AND_ORGANIZATION_ROLE ( 'classification_officer' ) ;
#205 = CARTESIAN_POINT ( 'NONE',  ( 5.000000000000000000, 6.123233995736766282E-16, 205.0000000000000284 ) ) ;
#206 = LOCAL_TIME ( 14, 28, 3.000000000000000000, #185 ) ;
#207 = EDGE_CURVE ( 'NONE', #128, #153, #281, .T. ) ;
#208 = APPLICATION_PROTOCOL_DEFINITION ( 'international standard', 'config_control_design', 1994, #159 ) ;
#209 = CARTESIAN_POINT ( 'NONE',  ( 0.000000000000000000, 0.000000000000000000, 205.0000000000000284 ) ) ;
#210 = APPROVAL_DATE_TIME ( #278, #57 ) ;
#211 = DIRECTION ( 'NONE',  ( 0.000000000000000000, 0.000000000000000000, 1.000000000000000000 ) ) ;
#212 = CC_DESIGN_DATE_AND_TIME_ASSIGNMENT ( #248, #229, ( #81 ) ) ;
#213 = CARTESIAN_POINT ( 'NONE',  ( 0.000000000000000000, 0.000000000000000000, 0.000000000000000000 ) ) ;
#214 = CARTESIAN_POINT ( 'NONE',  ( 0.000000000000000000, 0.000000000000000000, 205.0000000000000284 ) ) ;
#215 = CARTESIAN_POINT ( 'NONE',  ( 0.000000000000000000, 0.000000000000000000, 205.0000000000000284 ) ) ;
#216 = PRODUCT_DEFINITION_SHAPE ( 'NONE', 'NONE',  #81 ) ;
#217 = EDGE_CURVE ( 'NONE', #123, #129, #40, .T. ) ;
#218 = ORIENTED_EDGE ( 'NONE', *, *, #268, .F. ) ;
#219 = VECTOR ( 'NONE', #146, 1000.000000000000000 ) ;
#220 = EDGE_LOOP ( 'NONE', ( #60, #198, #161, #83 ) ) ;
#221 = VECTOR ( 'NONE', #226, 1000.000000000000000 ) ;
#222 = APPROVAL_STATUS ( 'not_yet_approved' ) ;
#223 = DIRECTION ( 'NONE',  ( 1.000000000000000000, 0.000000000000000000, 0.000000000000000000 ) ) ;
#224 = APPROVAL_ROLE ( '' ) ;
#225 = EDGE_CURVE ( 'NONE', #269, #232, #147, .T. ) ;
#226 = DIRECTION ( 'NONE',  ( -0.000000000000000000, -0.000000000000000000, -1.000000000000000000 ) ) ;
#227 = DATE_TIME_ROLE ( 'classification_date' ) ;
#228 = DIRECTION ( 'NONE',  ( 1.224646799147353207E-16, 1.000000000000000000, -0.000000000000000000 ) ) ;
#229 = DATE_TIME_ROLE ( 'creation_date' ) ;
#230 = ORIENTED_EDGE ( 'NONE', *, *, #132, .T. ) ;
#231 = PERSON_AND_ORGANIZATION ( #12, #156 ) ;
#232 = VERTEX_POINT ( 'NONE', #233 ) ;
#233 = CARTESIAN_POINT ( 'NONE',  ( -8.000000000000000000, 0.000000000000000000, 0.000000000000000000 ) ) ;
#234 = AXIS2_PLACEMENT_3D ( 'NONE', #116, #36, #169 ) ;
#235 = DIRECTION ( 'NONE',  ( 0.000000000000000000, 0.000000000000000000, -1.000000000000000000 ) ) ;
#236 = PLANE ( 'NONE',  #177 ) ;
#237 = EDGE_CURVE ( 'NONE', #304, #24, #104, .T. ) ;
#238 = CIRCLE ( 'NONE', #298, 8.000000000000000000 ) ;
#239 = CARTESIAN_POINT ( 'NONE',  ( -5.000000000000000000, 0.000000000000000000, 205.0000000000000284 ) ) ;
#240 = CARTESIAN_POINT ( 'NONE',  ( 0.000000000000000000, 0.000000000000000000, 0.000000000000000000 ) ) ;
#241 = APPLICATION_PROTOCOL_DEFINITION ( 'international standard', 'config_control_design', 1994, #187 ) ;
#242 = ORIENTED_EDGE ( 'NONE', *, *, #237, .F. ) ;
#243 = AXIS2_PLACEMENT_3D ( 'NONE', #263, #260, #190 ) ;
#244 = APPROVAL_PERSON_ORGANIZATION ( #113, #57, #106 ) ;
#245 = ORIENTED_EDGE ( 'NONE', *, *, #184, .F. ) ;
#246 = PRODUCT_RELATED_PRODUCT_CATEGORY ( 'detail', '', ( #76 ) ) ;
#247 = VECTOR ( 'NONE', #10, 1000.000000000000000 ) ;
#248 = DATE_AND_TIME ( #108, #38 ) ;
#249 = EDGE_LOOP ( 'NONE', ( #282, #17, #176, #15 ) ) ;
#250 = CC_DESIGN_PERSON_AND_ORGANIZATION_ASSIGNMENT ( #280, #252, ( #76 ) ) ;
#251 = DIRECTION ( 'NONE',  ( -1.000000000000000000, 0.000000000000000000, 0.000000000000000000 ) ) ;
#252 = PERSON_AND_ORGANIZATION_ROLE ( 'design_owner' ) ;
#253 = DIRECTION ( 'NONE',  ( -1.000000000000000000, 0.000000000000000000, 0.000000000000000000 ) ) ;
#254 = CIRCLE ( 'NONE', #294, 8.000000000000000000 ) ;
#255 = CARTESIAN_POINT ( 'NONE',  ( 0.000000000000000000, 0.000000000000000000, 5.000000000000000000 ) ) ;
#256 = APPROVAL_ROLE ( '' ) ;
#257 = ORIENTED_EDGE ( 'NONE', *, *, #268, .T. ) ;
#258 = EDGE_CURVE ( 'NONE', #129, #123, #33, .T. ) ;
#259 = DIRECTION ( 'NONE',  ( 1.000000000000000000, 0.000000000000000000, 0.000000000000000000 ) ) ;
#260 = DIRECTION ( 'NONE',  ( -0.000000000000000000, -0.000000000000000000, -1.000000000000000000 ) ) ;
#261 = CC_DESIGN_APPROVAL ( #57, ( #93 ) ) ;
#262 = ADVANCED_FACE ( 'NONE', ( #54 ), #119, .T. ) ;
#263 = CARTESIAN_POINT ( 'NONE',  ( 0.000000000000000000, 0.000000000000000000, 5.000000000000000000 ) ) ;
#264 = CARTESIAN_POINT ( 'NONE',  ( 0.000000000000000000, 0.000000000000000000, 5.000000000000000000 ) ) ;
#265 = AXIS2_PLACEMENT_3D ( 'NONE', #64, #202, #223 ) ;
#266 = DIRECTION ( 'NONE',  ( 0.000000000000000000, 0.000000000000000000, 1.000000000000000000 ) ) ;
#267 = CIRCLE ( 'NONE', #16, 5.000000000000000000 ) ;
#268 = EDGE_CURVE ( 'NONE', #270, #232, #254, .T. ) ;
#269 = VERTEX_POINT ( 'NONE', #284 ) ;
#270 = VERTEX_POINT ( 'NONE', #167 ) ;
#271 = ORIENTED_EDGE ( 'NONE', *, *, #98, .T. ) ;
#272 = CALENDAR_DATE ( 2022, 7, 7 ) ;
#273 = ORIENTED_EDGE ( 'NONE', *, *, #285, .F. ) ;
#274 = SHAPE_DEFINITION_REPRESENTATION ( #216, #199 ) ;
#275 = DIRECTION ( 'NONE',  ( 0.000000000000000000, 0.000000000000000000, 1.000000000000000000 ) ) ;
#276 = CALENDAR_DATE ( 2022, 7, 7 ) ;
#277 = FACE_OUTER_BOUND ( 'NONE', #11, .T. ) ;
#278 = DATE_AND_TIME ( #276, #206 ) ;
#279 = CARTESIAN_POINT ( 'NONE',  ( 5.200000000000000178, 0.000000000000000000, 5.000000000000005329 ) ) ;
#280 = PERSON_AND_ORGANIZATION ( #12, #156 ) ;
#281 = CIRCLE ( 'NONE', #1, 5.000000000000000000 ) ;
#282 = ORIENTED_EDGE ( 'NONE', *, *, #122, .F. ) ;
#283 = DIRECTION ( 'NONE',  ( 0.000000000000000000, 0.000000000000000000, 1.000000000000000000 ) ) ;
#284 = CARTESIAN_POINT ( 'NONE',  ( -8.000000000000000000, 0.000000000000000000, 5.000000000000000000 ) ) ;
#285 = EDGE_CURVE ( 'NONE', #292, #269, #70, .T. ) ;
#286 = CARTESIAN_POINT ( 'NONE',  ( 0.000000000000000000, 0.000000000000000000, 0.000000000000000000 ) ) ;
#287 = DIRECTION ( 'NONE',  ( 1.000000000000000000, 0.000000000000000000, 0.000000000000000000 ) ) ;
#288 = DIRECTION ( 'NONE',  ( 0.000000000000000000, -1.000000000000000000, 0.000000000000000000 ) ) ;
#289 = ORIENTED_EDGE ( 'NONE', *, *, #4, .T. ) ;
#290 = CIRCLE ( 'NONE', #110, 0.1999999999999996503 ) ;
#291 =( GEOMETRIC_REPRESENTATION_CONTEXT ( 3 ) GLOBAL_UNCERTAINTY_ASSIGNED_CONTEXT ( ( #61 ) ) GLOBAL_UNIT_ASSIGNED_CONTEXT ( ( #79, #14, #62 ) ) REPRESENTATION_CONTEXT ( 'NONE', 'WORKASPACE' ) );
#292 = VERTEX_POINT ( 'NONE', #117 ) ;
#293 = ORIENTED_EDGE ( 'NONE', *, *, #4, .F. ) ;
#294 = AXIS2_PLACEMENT_3D ( 'NONE', #213, #3, #96 ) ;
#295 = EDGE_LOOP ( 'NONE', ( #271, #90 ) ) ;
#296 = PERSON_AND_ORGANIZATION_ROLE ( 'creator' ) ;
#297 = DIRECTION ( 'NONE',  ( -1.000000000000000000, 0.000000000000000000, 0.000000000000000000 ) ) ;
#298 = AXIS2_PLACEMENT_3D ( 'NONE', #255, #275, #66 ) ;
#299 = CYLINDRICAL_SURFACE ( 'NONE', #124, 8.000000000000000000 ) ;
#300 = TOROIDAL_SURFACE ( 'NONE', #8, 5.200000000000000178, 0.2000000000000000111 ) ;
#301 = COORDINATED_UNIVERSAL_TIME_OFFSET ( 1, 0, .AHEAD. ) ;
#302 = DIRECTION ( 'NONE',  ( -0.000000000000000000, -0.000000000000000000, -1.000000000000000000 ) ) ;
#303 = PERSON_AND_ORGANIZATION ( #12, #156 ) ;
#304 = VERTEX_POINT ( 'NONE', #148 ) ;
#305 = EDGE_CURVE ( 'NONE', #153, #128, #267, .T. ) ;
#306 = PERSON_AND_ORGANIZATION_ROLE ( 'design_supplier' ) ;
#307 = CARTESIAN_POINT ( 'NONE',  ( -5.200000000000000178, 6.368163355566236381E-16, 5.200000000000009948 ) ) ;
ENDSEC;
END-ISO-10303-21;
