ISO-10303-21;
HEADER;
FILE_DESCRIPTION (( 'STEP AP203' ),
    '1' );
FILE_NAME ('cc4d.STEP',
    '2023-02-12T11:20:12',
    ( '' ),
    ( '' ),
    'SwSTEP 2.0',
    'SolidWorks 2019',
    '' );
FILE_SCHEMA (( 'CONFIG_CONTROL_DESIGN' ));
ENDSEC;

DATA;
#1 = CALENDAR_DATE ( 2023, 12, 2 ) ;
#2 = LOCAL_TIME ( 12, 20, 12.00000000000000000, #244 ) ;
#3 = CYLINDRICAL_SURFACE ( 'NONE', #172, 7.000000000000000000 ) ;
#4 = CALENDAR_DATE ( 2023, 12, 2 ) ;
#5 = CC_DESIGN_DATE_AND_TIME_ASSIGNMENT ( #220, #37, ( #195 ) ) ;
#6 = CARTESIAN_POINT ( 'NONE',  ( -4.000000000000000000, 0.000000000000000000, 5.000000000000000000 ) ) ;
#7 = CARTESIAN_POINT ( 'NONE',  ( 0.000000000000000000, 0.000000000000000000, 5.000000000000000000 ) ) ;
#8 = DATE_AND_TIME ( #138, #198 ) ;
#9 = DIRECTION ( 'NONE',  ( -0.000000000000000000, -0.000000000000000000, -1.000000000000000000 ) ) ;
#10 = PRODUCT ( 'cc4d', 'cc4d', '', ( #44 ) ) ;
#11 = PERSON_AND_ORGANIZATION ( #217, #121 ) ;
#12 = CC_DESIGN_DATE_AND_TIME_ASSIGNMENT ( #8, #80, ( #84 ) ) ;
#13 = DIRECTION ( 'NONE',  ( -1.000000000000000000, 0.000000000000000000, 0.000000000000000000 ) ) ;
#14 = CARTESIAN_POINT ( 'NONE',  ( -4.000000000000000000, 0.000000000000000000, 160.0000000000000000 ) ) ;
#15 = FACE_BOUND ( 'NONE', #226, .T. ) ;
#16 = CIRCLE ( 'NONE', #194, 7.000000000000000000 ) ;
#17 = DIRECTION ( 'NONE',  ( -0.000000000000000000, -0.000000000000000000, -1.000000000000000000 ) ) ;
#18 = ORIENTED_EDGE ( 'NONE', *, *, #40, .F. ) ;
#19 = PERSON_AND_ORGANIZATION ( #217, #121 ) ;
#20 = APPROVAL_DATE_TIME ( #182, #188 ) ;
#21 = EDGE_CURVE ( 'NONE', #233, #234, #63, .T. ) ;
#22 = APPROVAL_ROLE ( '' ) ;
#23 =( GEOMETRIC_REPRESENTATION_CONTEXT ( 3 ) GLOBAL_UNCERTAINTY_ASSIGNED_CONTEXT ( ( #162 ) ) GLOBAL_UNIT_ASSIGNED_CONTEXT ( ( #93, #39, #108 ) ) REPRESENTATION_CONTEXT ( 'NONE', 'WORKASPACE' ) );
#24 = COORDINATED_UNIVERSAL_TIME_OFFSET ( 1, 0, .AHEAD. ) ;
#25 = APPROVAL_STATUS ( 'not_yet_approved' ) ;
#26 = ORIENTED_EDGE ( 'NONE', *, *, #153, .T. ) ;
#27 = DIRECTION ( 'NONE',  ( 1.000000000000000000, 0.000000000000000000, 0.000000000000000000 ) ) ;
#28 = CARTESIAN_POINT ( 'NONE',  ( -7.000000000000000000, 0.000000000000000000, 0.000000000000000000 ) ) ;
#29 = CIRCLE ( 'NONE', #128, 4.000000000000000000 ) ;
#30 = AXIS2_PLACEMENT_3D ( 'NONE', #91, #32, #211 ) ;
#31 = AXIS2_PLACEMENT_3D ( 'NONE', #246, #207, #27 ) ;
#32 = DIRECTION ( 'NONE',  ( 0.000000000000000000, 0.000000000000000000, 1.000000000000000000 ) ) ;
#33 = ORIENTED_EDGE ( 'NONE', *, *, #132, .F. ) ;
#34 = EDGE_CURVE ( 'NONE', #210, #234, #251, .T. ) ;
#35 = APPROVAL_DATE_TIME ( #150, #164 ) ;
#36 = DIRECTION ( 'NONE',  ( 1.000000000000000000, 0.000000000000000000, 0.000000000000000000 ) ) ;
#37 = DATE_TIME_ROLE ( 'creation_date' ) ;
#38 = CC_DESIGN_SECURITY_CLASSIFICATION ( #84, ( #175 ) ) ;
#39 =( NAMED_UNIT ( * ) PLANE_ANGLE_UNIT ( ) SI_UNIT ( $, .RADIAN. ) );
#40 = EDGE_CURVE ( 'NONE', #87, #178, #41, .T. ) ;
#41 = CIRCLE ( 'NONE', #185, 7.000000000000000000 ) ;
#42 = PERSON_AND_ORGANIZATION_ROLE ( 'design_owner' ) ;
#43 = ORIENTED_EDGE ( 'NONE', *, *, #151, .T. ) ;
#44 = MECHANICAL_CONTEXT ( 'NONE', #130, 'mechanical' ) ;
#45 = ORIENTED_EDGE ( 'NONE', *, *, #239, .T. ) ;
#46 = MANIFOLD_SOLID_BREP ( 'Pøidat vysunutím3', #170 ) ;
#47 = CYLINDRICAL_SURFACE ( 'NONE', #156, 4.000000000000000000 ) ;
#48 = AXIS2_PLACEMENT_3D ( 'NONE', #101, #243, #64 ) ;
#49 = ADVANCED_BREP_SHAPE_REPRESENTATION ( 'cc4d', ( #46, #232 ), #23 ) ;
#50 = VECTOR ( 'NONE', #9, 1000.000000000000000 ) ;
#51 = CC_DESIGN_APPROVAL ( #188, ( #175 ) ) ;
#52 = EDGE_CURVE ( 'NONE', #210, #242, #134, .T. ) ;
#53 = ORIENTED_EDGE ( 'NONE', *, *, #34, .F. ) ;
#54 = DESIGN_CONTEXT ( 'detailed design', #149, 'design' ) ;
#55 = VERTEX_POINT ( 'NONE', #218 ) ;
#56 = APPROVAL_ROLE ( '' ) ;
#57 = ORIENTED_EDGE ( 'NONE', *, *, #176, .T. ) ;
#58 = DATE_AND_TIME ( #160, #158 ) ;
#59 = DIRECTION ( 'NONE',  ( 0.000000000000000000, 0.000000000000000000, 1.000000000000000000 ) ) ;
#60 = PERSON_AND_ORGANIZATION_ROLE ( 'classification_officer' ) ;
#61 = ORIENTED_EDGE ( 'NONE', *, *, #136, .T. ) ;
#62 = DIRECTION ( 'NONE',  ( 0.000000000000000000, 0.000000000000000000, 1.000000000000000000 ) ) ;
#63 = CIRCLE ( 'NONE', #140, 4.000000000000000000 ) ;
#64 = DIRECTION ( 'NONE',  ( 1.000000000000000000, 0.000000000000000000, -0.000000000000000000 ) ) ;
#65 = ADVANCED_FACE ( 'NONE', ( #154 ), #196, .F. ) ;
#66 = EDGE_LOOP ( 'NONE', ( #95, #57 ) ) ;
#67 = DIRECTION ( 'NONE',  ( 1.000000000000000000, 0.000000000000000000, 0.000000000000000000 ) ) ;
#68 = AXIS2_PLACEMENT_3D ( 'NONE', #112, #148, #126 ) ;
#69 = LOCAL_TIME ( 12, 20, 12.00000000000000000, #171 ) ;
#70 = EDGE_LOOP ( 'NONE', ( #26, #187 ) ) ;
#71 = APPROVAL ( #25, 'NEURÈENÝ' ) ;
#72 = AXIS2_PLACEMENT_3D ( 'NONE', #163, #62, #67 ) ;
#73 = ORIENTED_EDGE ( 'NONE', *, *, #105, .F. ) ;
#74 = APPROVAL_PERSON_ORGANIZATION ( #204, #71, #22 ) ;
#75 = APPLICATION_PROTOCOL_DEFINITION ( 'international standard', 'config_control_design', 1994, #149 ) ;
#76 = ORIENTED_EDGE ( 'NONE', *, *, #21, .T. ) ;
#77 = PERSON_AND_ORGANIZATION ( #217, #121 ) ;
#78 = DIRECTION ( 'NONE',  ( -0.000000000000000000, -0.000000000000000000, -1.000000000000000000 ) ) ;
#79 = DIRECTION ( 'NONE',  ( 1.000000000000000000, 0.000000000000000000, 0.000000000000000000 ) ) ;
#80 = DATE_TIME_ROLE ( 'classification_date' ) ;
#81 = EDGE_LOOP ( 'NONE', ( #109, #219, #43, #228 ) ) ;
#82 = DIRECTION ( 'NONE',  ( -0.000000000000000000, -0.000000000000000000, -1.000000000000000000 ) ) ;
#83 = CARTESIAN_POINT ( 'NONE',  ( 7.000000000000000000, 8.572527594031473190E-16, 5.000000000000000000 ) ) ;
#84 = SECURITY_CLASSIFICATION ( '', '', #135 ) ;
#85 = VECTOR ( 'NONE', #238, 1000.000000000000000 ) ;
#86 = DIRECTION ( 'NONE',  ( 0.000000000000000000, 0.000000000000000000, 1.000000000000000000 ) ) ;
#87 = VERTEX_POINT ( 'NONE', #83 ) ;
#88 = ORIENTED_EDGE ( 'NONE', *, *, #21, .F. ) ;
#89 = VECTOR ( 'NONE', #17, 1000.000000000000000 ) ;
#90 = CC_DESIGN_PERSON_AND_ORGANIZATION_ASSIGNMENT ( #201, #42, ( #10 ) ) ;
#91 = CARTESIAN_POINT ( 'NONE',  ( 0.000000000000000000, 0.000000000000000000, 5.000000000000000000 ) ) ;
#92 = AXIS2_PLACEMENT_3D ( 'NONE', #96, #124, #119 ) ;
#93 =( LENGTH_UNIT ( ) NAMED_UNIT ( * ) SI_UNIT ( .MILLI., .METRE. ) );
#94 = SHAPE_DEFINITION_REPRESENTATION ( #115, #49 ) ;
#95 = ORIENTED_EDGE ( 'NONE', *, *, #52, .T. ) ;
#96 = CARTESIAN_POINT ( 'NONE',  ( 0.000000000000000000, 0.000000000000000000, 0.000000000000000000 ) ) ;
#97 = DIRECTION ( 'NONE',  ( -1.000000000000000000, 0.000000000000000000, 0.000000000000000000 ) ) ;
#98 = CC_DESIGN_APPROVAL ( #164, ( #84 ) ) ;
#99 = COORDINATED_UNIVERSAL_TIME_OFFSET ( 1, 0, .AHEAD. ) ;
#100 = EDGE_LOOP ( 'NONE', ( #107, #189, #167, #249 ) ) ;
#101 = CARTESIAN_POINT ( 'NONE',  ( 0.000000000000000000, 0.000000000000000000, 160.0000000000000000 ) ) ;
#102 = PERSON_AND_ORGANIZATION_ROLE ( 'creator' ) ;
#103 = DIRECTION ( 'NONE',  ( 0.000000000000000000, 0.000000000000000000, 1.000000000000000000 ) ) ;
#104 = APPLICATION_PROTOCOL_DEFINITION ( 'international standard', 'config_control_design', 1994, #130 ) ;
#105 = EDGE_CURVE ( 'NONE', #122, #55, #125, .T. ) ;
#106 = CARTESIAN_POINT ( 'NONE',  ( 0.000000000000000000, 0.000000000000000000, 5.000000000000000000 ) ) ;
#107 = ORIENTED_EDGE ( 'NONE', *, *, #239, .F. ) ;
#108 =( NAMED_UNIT ( * ) SI_UNIT ( $, .STERADIAN. ) SOLID_ANGLE_UNIT ( ) );
#109 = ORIENTED_EDGE ( 'NONE', *, *, #111, .F. ) ;
#110 = DIRECTION ( 'NONE',  ( -1.000000000000000000, 0.000000000000000000, 0.000000000000000000 ) ) ;
#111 = EDGE_CURVE ( 'NONE', #87, #55, #180, .T. ) ;
#112 = CARTESIAN_POINT ( 'NONE',  ( 0.000000000000000000, 0.000000000000000000, 5.000000000000000000 ) ) ;
#113 = FACE_OUTER_BOUND ( 'NONE', #70, .T. ) ;
#114 = ADVANCED_FACE ( 'NONE', ( #206 ), #3, .T. ) ;
#115 = PRODUCT_DEFINITION_SHAPE ( 'NONE', 'NONE',  #195 ) ;
#116 = CC_DESIGN_PERSON_AND_ORGANIZATION_ASSIGNMENT ( #11, #60, ( #84 ) ) ;
#117 = CALENDAR_DATE ( 2023, 12, 2 ) ;
#118 = CARTESIAN_POINT ( 'NONE',  ( 4.000000000000000000, 4.898587196589412829E-16, 5.000000000000000000 ) ) ;
#119 = DIRECTION ( 'NONE',  ( 1.000000000000000000, 0.000000000000000000, -0.000000000000000000 ) ) ;
#120 = PERSON_AND_ORGANIZATION ( #217, #121 ) ;
#121 = ORGANIZATION ( 'NEURÈENÝ', 'NEURÈENÝ', '' ) ;
#122 = VERTEX_POINT ( 'NONE', #28 ) ;
#123 = CARTESIAN_POINT ( 'NONE',  ( 0.000000000000000000, 0.000000000000000000, 5.000000000000000000 ) ) ;
#124 = DIRECTION ( 'NONE',  ( 0.000000000000000000, 0.000000000000000000, 1.000000000000000000 ) ) ;
#125 = CIRCLE ( 'NONE', #72, 7.000000000000000000 ) ;
#126 = DIRECTION ( 'NONE',  ( -1.000000000000000000, 0.000000000000000000, 0.000000000000000000 ) ) ;
#127 = CARTESIAN_POINT ( 'NONE',  ( 0.000000000000000000, 0.000000000000000000, 160.0000000000000000 ) ) ;
#128 = AXIS2_PLACEMENT_3D ( 'NONE', #7, #59, #142 ) ;
#129 = CARTESIAN_POINT ( 'NONE',  ( 4.000000000000000000, 4.898587196589412829E-16, 160.0000000000000000 ) ) ;
#130 = APPLICATION_CONTEXT ( 'configuration controlled 3d designs of mechanical parts and assemblies' ) ;
#131 = ORIENTED_EDGE ( 'NONE', *, *, #111, .T. ) ;
#132 = EDGE_CURVE ( 'NONE', #234, #233, #29, .T. ) ;
#133 = LINE ( 'NONE', #129, #89 ) ;
#134 = CIRCLE ( 'NONE', #31, 4.000000000000000000 ) ;
#135 = SECURITY_CLASSIFICATION_LEVEL ( 'unclassified' ) ;
#136 = EDGE_CURVE ( 'NONE', #55, #122, #16, .T. ) ;
#137 = FACE_OUTER_BOUND ( 'NONE', #66, .T. ) ;
#138 = CALENDAR_DATE ( 2023, 12, 2 ) ;
#139 = DIRECTION ( 'NONE',  ( 1.000000000000000000, 0.000000000000000000, 0.000000000000000000 ) ) ;
#140 = AXIS2_PLACEMENT_3D ( 'NONE', #123, #146, #168 ) ;
#141 = APPROVAL_PERSON_ORGANIZATION ( #252, #164, #152 ) ;
#142 = DIRECTION ( 'NONE',  ( 1.000000000000000000, 0.000000000000000000, 0.000000000000000000 ) ) ;
#143 = EDGE_LOOP ( 'NONE', ( #18, #131, #61, #205 ) ) ;
#144 = FACE_OUTER_BOUND ( 'NONE', #81, .T. ) ;
#145 = CARTESIAN_POINT ( 'NONE',  ( -7.000000000000000000, 0.000000000000000000, 5.000000000000000000 ) ) ;
#146 = DIRECTION ( 'NONE',  ( 0.000000000000000000, 0.000000000000000000, 1.000000000000000000 ) ) ;
#147 = CC_DESIGN_PERSON_AND_ORGANIZATION_ASSIGNMENT ( #77, #202, ( #175 ) ) ;
#148 = DIRECTION ( 'NONE',  ( -0.000000000000000000, -0.000000000000000000, -1.000000000000000000 ) ) ;
#149 = APPLICATION_CONTEXT ( 'configuration controlled 3d designs of mechanical parts and assemblies' ) ;
#150 = DATE_AND_TIME ( #1, #69 ) ;
#151 = EDGE_CURVE ( 'NONE', #178, #122, #227, .T. ) ;
#152 = APPROVAL_ROLE ( '' ) ;
#153 = EDGE_CURVE ( 'NONE', #178, #87, #186, .T. ) ;
#154 = FACE_OUTER_BOUND ( 'NONE', #236, .T. ) ;
#155 = APPROVAL_DATE_TIME ( #58, #71 ) ;
#156 = AXIS2_PLACEMENT_3D ( 'NONE', #127, #192, #110 ) ;
#157 = CARTESIAN_POINT ( 'NONE',  ( 0.000000000000000000, 0.000000000000000000, 160.0000000000000000 ) ) ;
#158 = LOCAL_TIME ( 12, 20, 12.00000000000000000, #24 ) ;
#159 = CARTESIAN_POINT ( 'NONE',  ( -7.000000000000000000, 0.000000000000000000, 5.000000000000000000 ) ) ;
#160 = CALENDAR_DATE ( 2023, 12, 2 ) ;
#161 = CARTESIAN_POINT ( 'NONE',  ( 0.000000000000000000, 0.000000000000000000, 5.000000000000000000 ) ) ;
#162 = UNCERTAINTY_MEASURE_WITH_UNIT (LENGTH_MEASURE( 1.000000000000000082E-05 ), #93, 'distance_accuracy_value', 'NONE');
#163 = CARTESIAN_POINT ( 'NONE',  ( 0.000000000000000000, 0.000000000000000000, 0.000000000000000000 ) ) ;
#164 = APPROVAL ( #231, 'NEURÈENÝ' ) ;
#165 = DIRECTION ( 'NONE',  ( 0.000000000000000000, 0.000000000000000000, 1.000000000000000000 ) ) ;
#166 = CYLINDRICAL_SURFACE ( 'NONE', #68, 7.000000000000000000 ) ;
#167 = ORIENTED_EDGE ( 'NONE', *, *, #34, .T. ) ;
#168 = DIRECTION ( 'NONE',  ( 1.000000000000000000, 0.000000000000000000, 0.000000000000000000 ) ) ;
#169 = ADVANCED_FACE ( 'NONE', ( #137 ), #225, .T. ) ;
#170 = CLOSED_SHELL ( 'NONE', ( #248, #114, #174, #184, #65, #199, #169 ) ) ;
#171 = COORDINATED_UNIVERSAL_TIME_OFFSET ( 1, 0, .AHEAD. ) ;
#172 = AXIS2_PLACEMENT_3D ( 'NONE', #247, #78, #13 ) ;
#173 = ORIENTED_EDGE ( 'NONE', *, *, #136, .F. ) ;
#174 = ADVANCED_FACE ( 'NONE', ( #144 ), #166, .T. ) ;
#175 = PRODUCT_DEFINITION_FORMATION_WITH_SPECIFIED_SOURCE ( 'LIBOVOLNÝ', '', #10, .NOT_KNOWN. ) ;
#176 = EDGE_CURVE ( 'NONE', #242, #210, #245, .T. ) ;
#177 = PERSON_AND_ORGANIZATION ( #217, #121 ) ;
#178 = VERTEX_POINT ( 'NONE', #145 ) ;
#179 = CARTESIAN_POINT ( 'NONE',  ( 7.000000000000000000, 8.572527594031473190E-16, 5.000000000000000000 ) ) ;
#180 = LINE ( 'NONE', #179, #212 ) ;
#181 = CARTESIAN_POINT ( 'NONE',  ( -4.000000000000000000, 0.000000000000000000, 160.0000000000000000 ) ) ;
#182 = DATE_AND_TIME ( #4, #253 ) ;
#183 = DIRECTION ( 'NONE',  ( 1.000000000000000000, 0.000000000000000000, 0.000000000000000000 ) ) ;
#184 = ADVANCED_FACE ( 'NONE', ( #15, #113 ), #193, .T. ) ;
#185 = AXIS2_PLACEMENT_3D ( 'NONE', #161, #103, #183 ) ;
#186 = CIRCLE ( 'NONE', #191, 7.000000000000000000 ) ;
#187 = ORIENTED_EDGE ( 'NONE', *, *, #40, .T. ) ;
#188 = APPROVAL ( #235, 'NEURÈENÝ' ) ;
#189 = ORIENTED_EDGE ( 'NONE', *, *, #52, .F. ) ;
#190 = FACE_OUTER_BOUND ( 'NONE', #100, .T. ) ;
#191 = AXIS2_PLACEMENT_3D ( 'NONE', #106, #240, #139 ) ;
#192 = DIRECTION ( 'NONE',  ( -0.000000000000000000, -0.000000000000000000, -1.000000000000000000 ) ) ;
#193 = PLANE ( 'NONE',  #30 ) ;
#194 = AXIS2_PLACEMENT_3D ( 'NONE', #203, #86, #79 ) ;
#195 = PRODUCT_DEFINITION ( 'NEZNÁMÝ', '', #175, #54 ) ;
#196 = PLANE ( 'NONE',  #92 ) ;
#197 = AXIS2_PLACEMENT_3D ( 'NONE', #214, #209, #36 ) ;
#198 = LOCAL_TIME ( 12, 20, 12.00000000000000000, #99 ) ;
#199 = ADVANCED_FACE ( 'NONE', ( #190 ), #47, .T. ) ;
#200 = COORDINATED_UNIVERSAL_TIME_OFFSET ( 1, 0, .AHEAD. ) ;
#201 = PERSON_AND_ORGANIZATION ( #217, #121 ) ;
#202 = PERSON_AND_ORGANIZATION_ROLE ( 'design_supplier' ) ;
#203 = CARTESIAN_POINT ( 'NONE',  ( 0.000000000000000000, 0.000000000000000000, 0.000000000000000000 ) ) ;
#204 = PERSON_AND_ORGANIZATION ( #217, #121 ) ;
#205 = ORIENTED_EDGE ( 'NONE', *, *, #151, .F. ) ;
#206 = FACE_OUTER_BOUND ( 'NONE', #143, .T. ) ;
#207 = DIRECTION ( 'NONE',  ( 0.000000000000000000, 0.000000000000000000, 1.000000000000000000 ) ) ;
#208 = CC_DESIGN_APPROVAL ( #71, ( #195 ) ) ;
#209 = DIRECTION ( 'NONE',  ( 0.000000000000000000, 0.000000000000000000, 1.000000000000000000 ) ) ;
#210 = VERTEX_POINT ( 'NONE', #14 ) ;
#211 = DIRECTION ( 'NONE',  ( 1.000000000000000000, 0.000000000000000000, -0.000000000000000000 ) ) ;
#212 = VECTOR ( 'NONE', #82, 1000.000000000000000 ) ;
#213 = APPROVAL_PERSON_ORGANIZATION ( #19, #188, #56 ) ;
#214 = CARTESIAN_POINT ( 'NONE',  ( 0.000000000000000000, 0.000000000000000000, 160.0000000000000000 ) ) ;
#215 = AXIS2_PLACEMENT_3D ( 'NONE', #157, #221, #97 ) ;
#216 = CC_DESIGN_PERSON_AND_ORGANIZATION_ASSIGNMENT ( #177, #241, ( #175 ) ) ;
#217 = PERSON ( 'NEURÈENÝ', 'NEURÈENÝ', 'NEURÈENÝ', ('NEURÈENÝ'), ('NEURÈENÝ'), ('NEURÈENÝ') ) ;
#218 = CARTESIAN_POINT ( 'NONE',  ( 7.000000000000000000, 8.572527594031473190E-16, 0.000000000000000000 ) ) ;
#219 = ORIENTED_EDGE ( 'NONE', *, *, #153, .F. ) ;
#220 = DATE_AND_TIME ( #117, #2 ) ;
#221 = DIRECTION ( 'NONE',  ( -0.000000000000000000, -0.000000000000000000, -1.000000000000000000 ) ) ;
#222 = CARTESIAN_POINT ( 'NONE',  ( 4.000000000000000000, 4.898587196589412829E-16, 160.0000000000000000 ) ) ;
#223 = ORIENTED_EDGE ( 'NONE', *, *, #176, .F. ) ;
#224 = EDGE_LOOP ( 'NONE', ( #223, #45, #76, #53 ) ) ;
#225 = PLANE ( 'NONE',  #48 ) ;
#226 = EDGE_LOOP ( 'NONE', ( #33, #88 ) ) ;
#227 = LINE ( 'NONE', #159, #85 ) ;
#228 = ORIENTED_EDGE ( 'NONE', *, *, #105, .T. ) ;
#229 = CC_DESIGN_PERSON_AND_ORGANIZATION_ASSIGNMENT ( #120, #102, ( #195 ) ) ;
#230 = DIRECTION ( 'NONE',  ( 1.000000000000000000, 0.000000000000000000, 0.000000000000000000 ) ) ;
#231 = APPROVAL_STATUS ( 'not_yet_approved' ) ;
#232 = AXIS2_PLACEMENT_3D ( 'NONE', #250, #165, #230 ) ;
#233 = VERTEX_POINT ( 'NONE', #118 ) ;
#234 = VERTEX_POINT ( 'NONE', #6 ) ;
#235 = APPROVAL_STATUS ( 'not_yet_approved' ) ;
#236 = EDGE_LOOP ( 'NONE', ( #73, #173 ) ) ;
#237 = FACE_OUTER_BOUND ( 'NONE', #224, .T. ) ;
#238 = DIRECTION ( 'NONE',  ( -0.000000000000000000, -0.000000000000000000, -1.000000000000000000 ) ) ;
#239 = EDGE_CURVE ( 'NONE', #242, #233, #133, .T. ) ;
#240 = DIRECTION ( 'NONE',  ( 0.000000000000000000, 0.000000000000000000, 1.000000000000000000 ) ) ;
#241 = PERSON_AND_ORGANIZATION_ROLE ( 'creator' ) ;
#242 = VERTEX_POINT ( 'NONE', #222 ) ;
#243 = DIRECTION ( 'NONE',  ( 0.000000000000000000, 0.000000000000000000, 1.000000000000000000 ) ) ;
#244 = COORDINATED_UNIVERSAL_TIME_OFFSET ( 1, 0, .AHEAD. ) ;
#245 = CIRCLE ( 'NONE', #197, 4.000000000000000000 ) ;
#246 = CARTESIAN_POINT ( 'NONE',  ( 0.000000000000000000, 0.000000000000000000, 160.0000000000000000 ) ) ;
#247 = CARTESIAN_POINT ( 'NONE',  ( 0.000000000000000000, 0.000000000000000000, 5.000000000000000000 ) ) ;
#248 = ADVANCED_FACE ( 'NONE', ( #237 ), #255, .T. ) ;
#249 = ORIENTED_EDGE ( 'NONE', *, *, #132, .T. ) ;
#250 = CARTESIAN_POINT ( 'NONE',  ( 0.000000000000000000, 0.000000000000000000, 0.000000000000000000 ) ) ;
#251 = LINE ( 'NONE', #181, #50 ) ;
#252 = PERSON_AND_ORGANIZATION ( #217, #121 ) ;
#253 = LOCAL_TIME ( 12, 20, 12.00000000000000000, #200 ) ;
#254 = PRODUCT_RELATED_PRODUCT_CATEGORY ( 'detail', '', ( #10 ) ) ;
#255 = CYLINDRICAL_SURFACE ( 'NONE', #215, 4.000000000000000000 ) ;
ENDSEC;
END-ISO-10303-21;
