ISO-10303-21;
HEADER;
FILE_DESCRIPTION (( 'STEP AP203' ),
    '1' );
FILE_NAME ('7039.STEP',
    '2022-07-07T12:39:25',
    ( '' ),
    ( '' ),
    'SwSTEP 2.0',
    'SolidWorks 2019',
    '' );
FILE_SCHEMA (( 'CONFIG_CONTROL_DESIGN' ));
ENDSEC;

DATA;
#1 = ORIENTED_EDGE ( 'NONE', *, *, #220, .T. ) ;
#2 = EDGE_CURVE ( 'NONE', #161, #138, #273, .T. ) ;
#3 = DIRECTION ( 'NONE',  ( 1.000000000000000000, 0.000000000000000000, 0.000000000000000000 ) ) ;
#4 = APPROVAL_PERSON_ORGANIZATION ( #85, #78, #58 ) ;
#5 = DIRECTION ( 'NONE',  ( -1.000000000000000000, 1.224646799147350742E-16, 0.000000000000000000 ) ) ;
#6 = DIRECTION ( 'NONE',  ( 1.000000000000000000, 0.000000000000000000, 0.000000000000000000 ) ) ;
#7 = CARTESIAN_POINT ( 'NONE',  ( 0.000000000000000000, 0.000000000000000000, 0.000000000000000000 ) ) ;
#8 = ADVANCED_FACE ( 'NONE', ( #93 ), #263, .T. ) ;
#9 = CARTESIAN_POINT ( 'NONE',  ( 6.000000000000000888, 7.347880794884120722E-16, 5.000000000000000000 ) ) ;
#10 = DIRECTION ( 'NONE',  ( 1.224646799147353207E-16, 1.000000000000000000, -0.000000000000000000 ) ) ;
#11 = DIRECTION ( 'NONE',  ( 0.000000000000000000, 0.000000000000000000, 1.000000000000000000 ) ) ;
#12 = DIRECTION ( 'NONE',  ( 0.000000000000000000, 0.000000000000000000, 1.000000000000000000 ) ) ;
#13 = FACE_BOUND ( 'NONE', #185, .T. ) ;
#14 = DIRECTION ( 'NONE',  ( 1.000000000000000000, 0.000000000000000000, 0.000000000000000000 ) ) ;
#15 = CARTESIAN_POINT ( 'NONE',  ( 0.000000000000000000, 0.000000000000000000, 5.000000000000000000 ) ) ;
#16 = CIRCLE ( 'NONE', #236, 3.250000000000000444 ) ;
#17 = PERSON_AND_ORGANIZATION_ROLE ( 'creator' ) ;
#18 = DATE_TIME_ROLE ( 'classification_date' ) ;
#19 = MECHANICAL_CONTEXT ( 'NONE', #81, 'mechanical' ) ;
#20 = CALENDAR_DATE ( 2022, 7, 7 ) ;
#21 = UNCERTAINTY_MEASURE_WITH_UNIT (LENGTH_MEASURE( 1.000000000000000082E-05 ), #76, 'distance_accuracy_value', 'NONE');
#22 = EDGE_CURVE ( 'NONE', #47, #99, #80, .T. ) ;
#23 = AXIS2_PLACEMENT_3D ( 'NONE', #100, #119, #227 ) ;
#24 = ORIENTED_EDGE ( 'NONE', *, *, #188, .T. ) ;
#25 = EDGE_CURVE ( 'NONE', #173, #75, #150, .T. ) ;
#26 = ORIENTED_EDGE ( 'NONE', *, *, #214, .T. ) ;
#27 = PRODUCT ( '7039', '7039', '', ( #19 ) ) ;
#28 = CIRCLE ( 'NONE', #277, 6.000000000000000888 ) ;
#29 = FACE_OUTER_BOUND ( 'NONE', #68, .T. ) ;
#30 = DIRECTION ( 'NONE',  ( 0.000000000000000000, 0.000000000000000000, 1.000000000000000000 ) ) ;
#31 = ADVANCED_FACE ( 'NONE', ( #29 ), #200, .F. ) ;
#32 = CARTESIAN_POINT ( 'NONE',  ( -3.250000000000000444, 0.000000000000000000, 5.199999999999996625 ) ) ;
#33 = DIRECTION ( 'NONE',  ( -0.000000000000000000, -0.000000000000000000, -1.000000000000000000 ) ) ;
#34 = EDGE_LOOP ( 'NONE', ( #1, #89 ) ) ;
#35 = DIRECTION ( 'NONE',  ( 1.000000000000000000, 0.000000000000000000, 0.000000000000000000 ) ) ;
#36 = LOCAL_TIME ( 14, 39, 25.00000000000000000, #62 ) ;
#37 = MANIFOLD_SOLID_BREP ( 'Zaoblit1', #131 ) ;
#38 = CARTESIAN_POINT ( 'NONE',  ( 0.000000000000000000, 0.000000000000000000, 5.000000000000000000 ) ) ;
#39 = LINE ( 'NONE', #9, #114 ) ;
#40 = CIRCLE ( 'NONE', #249, 0.1999999999999996503 ) ;
#41 = PERSON_AND_ORGANIZATION_ROLE ( 'creator' ) ;
#42 = PERSON_AND_ORGANIZATION ( #157, #165 ) ;
#43 = CIRCLE ( 'NONE', #110, 3.450000000000000178 ) ;
#44 = ORIENTED_EDGE ( 'NONE', *, *, #188, .F. ) ;
#45 = AXIS2_PLACEMENT_3D ( 'NONE', #15, #195, #127 ) ;
#46 = APPROVAL_PERSON_ORGANIZATION ( #302, #204, #179 ) ;
#47 = VERTEX_POINT ( 'NONE', #142 ) ;
#48 = CARTESIAN_POINT ( 'NONE',  ( 0.000000000000000000, 0.000000000000000000, 5.199999999999996625 ) ) ;
#49 = LINE ( 'NONE', #145, #306 ) ;
#50 = PLANE ( 'NONE',  #23 ) ;
#51 = LINE ( 'NONE', #217, #191 ) ;
#52 = CARTESIAN_POINT ( 'NONE',  ( -3.250000000000000444, 0.000000000000000000, 130.0000000000000000 ) ) ;
#53 = CARTESIAN_POINT ( 'NONE',  ( 0.000000000000000000, 0.000000000000000000, 0.000000000000000000 ) ) ;
#54 = CYLINDRICAL_SURFACE ( 'NONE', #231, 6.000000000000000888 ) ;
#55 = ORIENTED_EDGE ( 'NONE', *, *, #279, .T. ) ;
#56 = EDGE_CURVE ( 'NONE', #194, #138, #51, .T. ) ;
#57 = DIRECTION ( 'NONE',  ( 1.000000000000000000, 0.000000000000000000, 0.000000000000000000 ) ) ;
#58 = APPROVAL_ROLE ( '' ) ;
#59 = EDGE_CURVE ( 'NONE', #75, #47, #66, .T. ) ;
#60 = AXIS2_PLACEMENT_3D ( 'NONE', #143, #240, #69 ) ;
#61 = CALENDAR_DATE ( 2022, 7, 7 ) ;
#62 = COORDINATED_UNIVERSAL_TIME_OFFSET ( 1, 0, .AHEAD. ) ;
#63 = APPROVAL_STATUS ( 'not_yet_approved' ) ;
#64 = CC_DESIGN_DATE_AND_TIME_ASSIGNMENT ( #301, #106, ( #258 ) ) ;
#65 = ORIENTED_EDGE ( 'NONE', *, *, #22, .T. ) ;
#66 = CIRCLE ( 'NONE', #140, 0.2000000000000000944 ) ;
#67 = ORIENTED_EDGE ( 'NONE', *, *, #214, .F. ) ;
#68 = EDGE_LOOP ( 'NONE', ( #189, #67, #135, #164 ) ) ;
#69 = DIRECTION ( 'NONE',  ( 1.000000000000000000, 0.000000000000000000, -0.000000000000000000 ) ) ;
#70 = DIRECTION ( 'NONE',  ( 0.000000000000000000, 0.000000000000000000, 1.000000000000000000 ) ) ;
#71 = DIRECTION ( 'NONE',  ( 1.000000000000000000, 0.000000000000000000, -0.000000000000000000 ) ) ;
#72 = CYLINDRICAL_SURFACE ( 'NONE', #209, 3.250000000000000444 ) ;
#73 = DIRECTION ( 'NONE',  ( 0.000000000000000000, 0.000000000000000000, 1.000000000000000000 ) ) ;
#74 = EDGE_CURVE ( 'NONE', #260, #295, #49, .T. ) ;
#75 = VERTEX_POINT ( 'NONE', #32 ) ;
#76 =( LENGTH_UNIT ( ) NAMED_UNIT ( * ) SI_UNIT ( .MILLI., .METRE. ) );
#77 = DIRECTION ( 'NONE',  ( -0.000000000000000000, -0.000000000000000000, -1.000000000000000000 ) ) ;
#78 = APPROVAL ( #181, 'NEURÈENÝ' ) ;
#79 = APPROVAL_DATE_TIME ( #300, #102 ) ;
#80 = CIRCLE ( 'NONE', #174, 3.450000000000000178 ) ;
#81 = APPLICATION_CONTEXT ( 'configuration controlled 3d designs of mechanical parts and assemblies' ) ;
#82 = DATE_AND_TIME ( #205, #36 ) ;
#83 = PERSON_AND_ORGANIZATION ( #157, #165 ) ;
#84 = CARTESIAN_POINT ( 'NONE',  ( 0.000000000000000000, 0.000000000000000000, 0.000000000000000000 ) ) ;
#85 = PERSON_AND_ORGANIZATION ( #157, #165 ) ;
#86 = ORIENTED_EDGE ( 'NONE', *, *, #158, .T. ) ;
#87 = ORIENTED_EDGE ( 'NONE', *, *, #56, .F. ) ;
#88 = ORIENTED_EDGE ( 'NONE', *, *, #158, .F. ) ;
#89 = ORIENTED_EDGE ( 'NONE', *, *, #286, .T. ) ;
#90 = PRODUCT_DEFINITION_SHAPE ( 'NONE', 'NONE',  #258 ) ;
#91 = ORIENTED_EDGE ( 'NONE', *, *, #109, .F. ) ;
#92 = DIRECTION ( 'NONE',  ( -1.000000000000000000, 0.000000000000000000, 0.000000000000000000 ) ) ;
#93 = FACE_OUTER_BOUND ( 'NONE', #284, .T. ) ;
#94 = CARTESIAN_POINT ( 'NONE',  ( 6.000000000000000888, 7.347880794884120722E-16, 5.000000000000000000 ) ) ;
#95 = CIRCLE ( 'NONE', #297, 3.250000000000000444 ) ;
#96 = DIRECTION ( 'NONE',  ( -1.000000000000000000, 0.000000000000000000, 0.000000000000000000 ) ) ;
#97 = DIRECTION ( 'NONE',  ( 0.000000000000000000, 0.000000000000000000, 1.000000000000000000 ) ) ;
#98 = ADVANCED_FACE ( 'NONE', ( #244 ), #72, .T. ) ;
#99 = VERTEX_POINT ( 'NONE', #124 ) ;
#100 = CARTESIAN_POINT ( 'NONE',  ( 0.000000000000000000, 0.000000000000000000, 5.000000000000000000 ) ) ;
#101 = PERSON_AND_ORGANIZATION_ROLE ( 'design_owner' ) ;
#102 = APPROVAL ( #63, 'NEURÈENÝ' ) ;
#103 = COORDINATED_UNIVERSAL_TIME_OFFSET ( 1, 0, .AHEAD. ) ;
#104 = AXIS2_PLACEMENT_3D ( 'NONE', #48, #70, #148 ) ;
#105 = SHAPE_DEFINITION_REPRESENTATION ( #90, #267 ) ;
#106 = DATE_TIME_ROLE ( 'creation_date' ) ;
#107 = EDGE_LOOP ( 'NONE', ( #88, #108, #190, #91 ) ) ;
#108 = ORIENTED_EDGE ( 'NONE', *, *, #59, .T. ) ;
#109 = EDGE_CURVE ( 'NONE', #295, #99, #40, .T. ) ;
#110 = AXIS2_PLACEMENT_3D ( 'NONE', #289, #125, #178 ) ;
#111 = LOCAL_TIME ( 14, 39, 25.00000000000000000, #250 ) ;
#112 = EDGE_LOOP ( 'NONE', ( #166, #24, #113, #87 ) ) ;
#113 = ORIENTED_EDGE ( 'NONE', *, *, #2, .T. ) ;
#114 = VECTOR ( 'NONE', #33, 1000.000000000000000 ) ;
#115 = PRODUCT_DEFINITION_FORMATION_WITH_SPECIFIED_SOURCE ( 'LIBOVOLNÝ', '', #27, .NOT_KNOWN. ) ;
#116 = DIRECTION ( 'NONE',  ( -0.000000000000000000, -0.000000000000000000, -1.000000000000000000 ) ) ;
#117 = CARTESIAN_POINT ( 'NONE',  ( 0.000000000000000000, 0.000000000000000000, 5.199999999999996625 ) ) ;
#118 = CARTESIAN_POINT ( 'NONE',  ( 0.000000000000000000, 0.000000000000000000, 130.0000000000000000 ) ) ;
#119 = DIRECTION ( 'NONE',  ( 0.000000000000000000, 0.000000000000000000, 1.000000000000000000 ) ) ;
#120 = DIRECTION ( 'NONE',  ( -0.000000000000000000, -0.000000000000000000, -1.000000000000000000 ) ) ;
#121 = EDGE_CURVE ( 'NONE', #138, #161, #287, .T. ) ;
#122 = CARTESIAN_POINT ( 'NONE',  ( 0.000000000000000000, 0.000000000000000000, 5.000000000000000000 ) ) ;
#123 = CIRCLE ( 'NONE', #254, 3.250000000000000444 ) ;
#124 = CARTESIAN_POINT ( 'NONE',  ( 3.450000000000000178, 0.000000000000000000, 4.999999999999998224 ) ) ;
#125 = DIRECTION ( 'NONE',  ( -0.000000000000000000, -0.000000000000000000, -1.000000000000000000 ) ) ;
#126 = DIRECTION ( 'NONE',  ( -0.000000000000000000, -0.000000000000000000, -1.000000000000000000 ) ) ;
#127 = DIRECTION ( 'NONE',  ( 1.000000000000000000, 0.000000000000000000, 0.000000000000000000 ) ) ;
#128 = PRODUCT_RELATED_PRODUCT_CATEGORY ( 'detail', '', ( #27 ) ) ;
#129 = APPROVAL_DATE_TIME ( #154, #204 ) ;
#130 = PERSON_AND_ORGANIZATION ( #157, #165 ) ;
#131 = CLOSED_SHELL ( 'NONE', ( #253, #98, #141, #170, #282, #210, #8, #245, #31 ) ) ;
#132 = APPLICATION_PROTOCOL_DEFINITION ( 'international standard', 'config_control_design', 1994, #272 ) ;
#133 = CC_DESIGN_APPROVAL ( #102, ( #115 ) ) ;
#134 = PERSON_AND_ORGANIZATION_ROLE ( 'design_supplier' ) ;
#135 = ORIENTED_EDGE ( 'NONE', *, *, #109, .T. ) ;
#136 = CC_DESIGN_PERSON_AND_ORGANIZATION_ASSIGNMENT ( #130, #305, ( #232 ) ) ;
#137 = AXIS2_PLACEMENT_3D ( 'NONE', #7, #219, #3 ) ;
#138 = VERTEX_POINT ( 'NONE', #226 ) ;
#139 = CC_DESIGN_APPROVAL ( #204, ( #258 ) ) ;
#140 = AXIS2_PLACEMENT_3D ( 'NONE', #288, #10, #5 ) ;
#141 = ADVANCED_FACE ( 'NONE', ( #152 ), #247, .T. ) ;
#142 = CARTESIAN_POINT ( 'NONE',  ( -3.450000000000000178, 4.225031457058368824E-16, 4.999999999999998224 ) ) ;
#143 = CARTESIAN_POINT ( 'NONE',  ( 0.000000000000000000, 0.000000000000000000, 0.000000000000000000 ) ) ;
#144 = LOCAL_TIME ( 14, 39, 25.00000000000000000, #103 ) ;
#145 = CARTESIAN_POINT ( 'NONE',  ( 3.250000000000000444, 3.980102097228898231E-16, 130.0000000000000000 ) ) ;
#146 = PLANE ( 'NONE',  #160 ) ;
#147 = CC_DESIGN_PERSON_AND_ORGANIZATION_ASSIGNMENT ( #206, #17, ( #115 ) ) ;
#148 = DIRECTION ( 'NONE',  ( 1.000000000000000000, 0.000000000000000000, 0.000000000000000000 ) ) ;
#149 = FACE_OUTER_BOUND ( 'NONE', #199, .T. ) ;
#150 = LINE ( 'NONE', #167, #257 ) ;
#151 = DIRECTION ( 'NONE',  ( 1.000000000000000000, 0.000000000000000000, 0.000000000000000000 ) ) ;
#152 = FACE_OUTER_BOUND ( 'NONE', #112, .T. ) ;
#153 = DIRECTION ( 'NONE',  ( 1.000000000000000000, 0.000000000000000000, 0.000000000000000000 ) ) ;
#154 = DATE_AND_TIME ( #203, #111 ) ;
#155 = CIRCLE ( 'NONE', #223, 3.250000000000000444 ) ;
#156 = DATE_AND_TIME ( #61, #255 ) ;
#157 = PERSON ( 'NEURÈENÝ', 'NEURÈENÝ', 'NEURÈENÝ', ('NEURÈENÝ'), ('NEURÈENÝ'), ('NEURÈENÝ') ) ;
#158 = EDGE_CURVE ( 'NONE', #75, #295, #123, .T. ) ;
#159 = APPLICATION_PROTOCOL_DEFINITION ( 'international standard', 'config_control_design', 1994, #81 ) ;
#160 = AXIS2_PLACEMENT_3D ( 'NONE', #264, #97, #71 ) ;
#161 = VERTEX_POINT ( 'NONE', #296 ) ;
#162 = CC_DESIGN_PERSON_AND_ORGANIZATION_ASSIGNMENT ( #207, #101, ( #27 ) ) ;
#163 = ORIENTED_EDGE ( 'NONE', *, *, #56, .T. ) ;
#164 = ORIENTED_EDGE ( 'NONE', *, *, #22, .F. ) ;
#165 = ORGANIZATION ( 'NEURÈENÝ', 'NEURÈENÝ', '' ) ;
#166 = ORIENTED_EDGE ( 'NONE', *, *, #286, .F. ) ;
#167 = CARTESIAN_POINT ( 'NONE',  ( -3.250000000000000444, 0.000000000000000000, 130.0000000000000000 ) ) ;
#168 = ORIENTED_EDGE ( 'NONE', *, *, #121, .F. ) ;
#169 = CARTESIAN_POINT ( 'NONE',  ( 3.250000000000000444, 3.980102097228898231E-16, 130.0000000000000000 ) ) ;
#170 = ADVANCED_FACE ( 'NONE', ( #271 ), #54, .T. ) ;
#171 = ORIENTED_EDGE ( 'NONE', *, *, #220, .F. ) ;
#172 = DIRECTION ( 'NONE',  ( 1.000000000000000000, 0.000000000000000000, 0.000000000000000000 ) ) ;
#173 = VERTEX_POINT ( 'NONE', #52 ) ;
#174 = AXIS2_PLACEMENT_3D ( 'NONE', #268, #120, #35 ) ;
#175 = DIRECTION ( 'NONE',  ( 1.000000000000000000, 0.000000000000000000, 0.000000000000000000 ) ) ;
#176 = VERTEX_POINT ( 'NONE', #94 ) ;
#177 = FACE_OUTER_BOUND ( 'NONE', #107, .T. ) ;
#178 = DIRECTION ( 'NONE',  ( 1.000000000000000000, 0.000000000000000000, 0.000000000000000000 ) ) ;
#179 = APPROVAL_ROLE ( '' ) ;
#180 = AXIS2_PLACEMENT_3D ( 'NONE', #290, #285, #243 ) ;
#181 = APPROVAL_STATUS ( 'not_yet_approved' ) ;
#182 = AXIS2_PLACEMENT_3D ( 'NONE', #242, #201, #6 ) ;
#183 = COORDINATED_UNIVERSAL_TIME_OFFSET ( 1, 0, .AHEAD. ) ;
#184 = PERSON_AND_ORGANIZATION ( #157, #165 ) ;
#185 = EDGE_LOOP ( 'NONE', ( #215, #65 ) ) ;
#186 = EDGE_CURVE ( 'NONE', #99, #47, #43, .T. ) ;
#187 = EDGE_LOOP ( 'NONE', ( #44, #171, #163, #307 ) ) ;
#188 = EDGE_CURVE ( 'NONE', #176, #161, #39, .T. ) ;
#189 = ORIENTED_EDGE ( 'NONE', *, *, #59, .F. ) ;
#190 = ORIENTED_EDGE ( 'NONE', *, *, #186, .F. ) ;
#191 = VECTOR ( 'NONE', #239, 1000.000000000000000 ) ;
#192 = CC_DESIGN_PERSON_AND_ORGANIZATION_ASSIGNMENT ( #42, #134, ( #115 ) ) ;
#193 = DIRECTION ( 'NONE',  ( 0.000000000000000000, 0.000000000000000000, 1.000000000000000000 ) ) ;
#194 = VERTEX_POINT ( 'NONE', #292 ) ;
#195 = DIRECTION ( 'NONE',  ( 0.000000000000000000, 0.000000000000000000, 1.000000000000000000 ) ) ;
#196 =( GEOMETRIC_REPRESENTATION_CONTEXT ( 3 ) GLOBAL_UNCERTAINTY_ASSIGNED_CONTEXT ( ( #21 ) ) GLOBAL_UNIT_ASSIGNED_CONTEXT ( ( #76, #251, #228 ) ) REPRESENTATION_CONTEXT ( 'NONE', 'WORKASPACE' ) );
#197 = CARTESIAN_POINT ( 'NONE',  ( 3.450000000000000178, 0.000000000000000000, 5.199999999999996625 ) ) ;
#198 = CARTESIAN_POINT ( 'NONE',  ( 0.000000000000000000, 0.000000000000000000, 130.0000000000000000 ) ) ;
#199 = EDGE_LOOP ( 'NONE', ( #168, #211 ) ) ;
#200 = TOROIDAL_SURFACE ( 'NONE', #104, 3.450000000000000178, 0.2000000000000000111 ) ;
#201 = DIRECTION ( 'NONE',  ( 0.000000000000000000, 0.000000000000000000, 1.000000000000000000 ) ) ;
#202 = DIRECTION ( 'NONE',  ( -1.000000000000000000, 0.000000000000000000, 0.000000000000000000 ) ) ;
#203 = CALENDAR_DATE ( 2022, 7, 7 ) ;
#204 = APPROVAL ( #280, 'NEURÈENÝ' ) ;
#205 = CALENDAR_DATE ( 2022, 7, 7 ) ;
#206 = PERSON_AND_ORGANIZATION ( #157, #165 ) ;
#207 = PERSON_AND_ORGANIZATION ( #157, #165 ) ;
#208 = APPROVAL_ROLE ( '' ) ;
#209 = AXIS2_PLACEMENT_3D ( 'NONE', #118, #265, #96 ) ;
#210 = ADVANCED_FACE ( 'NONE', ( #149 ), #218, .F. ) ;
#211 = ORIENTED_EDGE ( 'NONE', *, *, #2, .F. ) ;
#212 = ORIENTED_EDGE ( 'NONE', *, *, #275, .T. ) ;
#213 = AXIS2_PLACEMENT_3D ( 'NONE', #38, #126, #92 ) ;
#214 = EDGE_CURVE ( 'NONE', #295, #75, #16, .T. ) ;
#215 = ORIENTED_EDGE ( 'NONE', *, *, #186, .T. ) ;
#216 = ORIENTED_EDGE ( 'NONE', *, *, #74, .T. ) ;
#217 = CARTESIAN_POINT ( 'NONE',  ( -6.000000000000000888, 0.000000000000000000, 5.000000000000000000 ) ) ;
#218 = PLANE ( 'NONE',  #60 ) ;
#219 = DIRECTION ( 'NONE',  ( 0.000000000000000000, 0.000000000000000000, 1.000000000000000000 ) ) ;
#220 = EDGE_CURVE ( 'NONE', #194, #176, #291, .T. ) ;
#221 = CARTESIAN_POINT ( 'NONE',  ( 0.000000000000000000, 0.000000000000000000, 5.000000000000000000 ) ) ;
#222 = ORIENTED_EDGE ( 'NONE', *, *, #275, .F. ) ;
#223 = AXIS2_PLACEMENT_3D ( 'NONE', #198, #262, #151 ) ;
#224 = DIRECTION ( 'NONE',  ( 0.000000000000000000, 0.000000000000000000, -1.000000000000000000 ) ) ;
#225 = CARTESIAN_POINT ( 'NONE',  ( 0.000000000000000000, 0.000000000000000000, 5.199999999999996625 ) ) ;
#226 = CARTESIAN_POINT ( 'NONE',  ( -6.000000000000000888, 0.000000000000000000, 0.000000000000000000 ) ) ;
#227 = DIRECTION ( 'NONE',  ( 1.000000000000000000, 0.000000000000000000, -0.000000000000000000 ) ) ;
#228 =( NAMED_UNIT ( * ) SI_UNIT ( $, .STERADIAN. ) SOLID_ANGLE_UNIT ( ) );
#229 = APPROVAL_DATE_TIME ( #156, #78 ) ;
#230 = CALENDAR_DATE ( 2022, 7, 7 ) ;
#231 = AXIS2_PLACEMENT_3D ( 'NONE', #122, #77, #202 ) ;
#232 = SECURITY_CLASSIFICATION ( '', '', #278 ) ;
#233 = ORIENTED_EDGE ( 'NONE', *, *, #25, .F. ) ;
#234 = AXIS2_PLACEMENT_3D ( 'NONE', #53, #12, #14 ) ;
#235 = EDGE_LOOP ( 'NONE', ( #55, #212 ) ) ;
#236 = AXIS2_PLACEMENT_3D ( 'NONE', #117, #11, #153 ) ;
#237 = CC_DESIGN_DATE_AND_TIME_ASSIGNMENT ( #82, #18, ( #232 ) ) ;
#238 = EDGE_LOOP ( 'NONE', ( #222, #216, #26, #233 ) ) ;
#239 = DIRECTION ( 'NONE',  ( -0.000000000000000000, -0.000000000000000000, -1.000000000000000000 ) ) ;
#240 = DIRECTION ( 'NONE',  ( 0.000000000000000000, 0.000000000000000000, 1.000000000000000000 ) ) ;
#241 = DIRECTION ( 'NONE',  ( -0.000000000000000000, -0.000000000000000000, -1.000000000000000000 ) ) ;
#242 = CARTESIAN_POINT ( 'NONE',  ( 0.000000000000000000, 0.000000000000000000, 5.199999999999996625 ) ) ;
#243 = DIRECTION ( 'NONE',  ( -1.000000000000000000, 0.000000000000000000, 0.000000000000000000 ) ) ;
#244 = FACE_OUTER_BOUND ( 'NONE', #238, .T. ) ;
#245 = ADVANCED_FACE ( 'NONE', ( #298 ), #146, .T. ) ;
#246 = TOROIDAL_SURFACE ( 'NONE', #182, 3.450000000000000178, 0.2000000000000000111 ) ;
#247 = CYLINDRICAL_SURFACE ( 'NONE', #213, 6.000000000000000888 ) ;
#248 = FACE_OUTER_BOUND ( 'NONE', #34, .T. ) ;
#249 = AXIS2_PLACEMENT_3D ( 'NONE', #197, #294, #224 ) ;
#250 = COORDINATED_UNIVERSAL_TIME_OFFSET ( 1, 0, .AHEAD. ) ;
#251 =( NAMED_UNIT ( * ) PLANE_ANGLE_UNIT ( ) SI_UNIT ( $, .RADIAN. ) );
#252 = DESIGN_CONTEXT ( 'detailed design', #272, 'design' ) ;
#253 = ADVANCED_FACE ( 'NONE', ( #177 ), #246, .F. ) ;
#254 = AXIS2_PLACEMENT_3D ( 'NONE', #225, #193, #57 ) ;
#255 = LOCAL_TIME ( 14, 39, 25.00000000000000000, #276 ) ;
#256 = ORIENTED_EDGE ( 'NONE', *, *, #279, .F. ) ;
#257 = VECTOR ( 'NONE', #116, 1000.000000000000000 ) ;
#258 = PRODUCT_DEFINITION ( 'NEZNÁMÝ', '', #115, #252 ) ;
#259 = AXIS2_PLACEMENT_3D ( 'NONE', #84, #274, #304 ) ;
#260 = VERTEX_POINT ( 'NONE', #169 ) ;
#261 = ORIENTED_EDGE ( 'NONE', *, *, #25, .T. ) ;
#262 = DIRECTION ( 'NONE',  ( 0.000000000000000000, 0.000000000000000000, 1.000000000000000000 ) ) ;
#263 = CYLINDRICAL_SURFACE ( 'NONE', #180, 3.250000000000000444 ) ;
#264 = CARTESIAN_POINT ( 'NONE',  ( 0.000000000000000000, 0.000000000000000000, 130.0000000000000000 ) ) ;
#265 = DIRECTION ( 'NONE',  ( -0.000000000000000000, -0.000000000000000000, -1.000000000000000000 ) ) ;
#266 = CARTESIAN_POINT ( 'NONE',  ( 3.250000000000000444, 3.980102097228898231E-16, 5.199999999999996625 ) ) ;
#267 = ADVANCED_BREP_SHAPE_REPRESENTATION ( '7039', ( #37, #259 ), #196 ) ;
#268 = CARTESIAN_POINT ( 'NONE',  ( 0.000000000000000000, 0.000000000000000000, 5.000000000000000000 ) ) ;
#269 = CARTESIAN_POINT ( 'NONE',  ( 0.000000000000000000, 0.000000000000000000, 130.0000000000000000 ) ) ;
#270 = APPROVAL_PERSON_ORGANIZATION ( #83, #102, #208 ) ;
#271 = FACE_OUTER_BOUND ( 'NONE', #187, .T. ) ;
#272 = APPLICATION_CONTEXT ( 'configuration controlled 3d designs of mechanical parts and assemblies' ) ;
#273 = CIRCLE ( 'NONE', #137, 6.000000000000000888 ) ;
#274 = DIRECTION ( 'NONE',  ( 0.000000000000000000, 0.000000000000000000, 1.000000000000000000 ) ) ;
#275 = EDGE_CURVE ( 'NONE', #260, #173, #95, .T. ) ;
#276 = COORDINATED_UNIVERSAL_TIME_OFFSET ( 1, 0, .AHEAD. ) ;
#277 = AXIS2_PLACEMENT_3D ( 'NONE', #221, #73, #175 ) ;
#278 = SECURITY_CLASSIFICATION_LEVEL ( 'unclassified' ) ;
#279 = EDGE_CURVE ( 'NONE', #173, #260, #155, .T. ) ;
#280 = APPROVAL_STATUS ( 'not_yet_approved' ) ;
#281 = CC_DESIGN_APPROVAL ( #78, ( #232 ) ) ;
#282 = ADVANCED_FACE ( 'NONE', ( #13, #248 ), #50, .T. ) ;
#283 = ORIENTED_EDGE ( 'NONE', *, *, #74, .F. ) ;
#284 = EDGE_LOOP ( 'NONE', ( #283, #256, #261, #86 ) ) ;
#285 = DIRECTION ( 'NONE',  ( -0.000000000000000000, -0.000000000000000000, -1.000000000000000000 ) ) ;
#286 = EDGE_CURVE ( 'NONE', #176, #194, #28, .T. ) ;
#287 = CIRCLE ( 'NONE', #234, 6.000000000000000888 ) ;
#288 = CARTESIAN_POINT ( 'NONE',  ( -3.450000000000000178, 4.225031457058368824E-16, 5.199999999999996625 ) ) ;
#289 = CARTESIAN_POINT ( 'NONE',  ( 0.000000000000000000, 0.000000000000000000, 5.000000000000000000 ) ) ;
#290 = CARTESIAN_POINT ( 'NONE',  ( 0.000000000000000000, 0.000000000000000000, 130.0000000000000000 ) ) ;
#291 = CIRCLE ( 'NONE', #45, 6.000000000000000888 ) ;
#292 = CARTESIAN_POINT ( 'NONE',  ( -6.000000000000000888, 0.000000000000000000, 5.000000000000000000 ) ) ;
#293 = CC_DESIGN_PERSON_AND_ORGANIZATION_ASSIGNMENT ( #184, #41, ( #258 ) ) ;
#294 = DIRECTION ( 'NONE',  ( 0.000000000000000000, -1.000000000000000000, 0.000000000000000000 ) ) ;
#295 = VERTEX_POINT ( 'NONE', #266 ) ;
#296 = CARTESIAN_POINT ( 'NONE',  ( 6.000000000000000888, 7.347880794884120722E-16, 0.000000000000000000 ) ) ;
#297 = AXIS2_PLACEMENT_3D ( 'NONE', #269, #30, #172 ) ;
#298 = FACE_OUTER_BOUND ( 'NONE', #235, .T. ) ;
#299 = LOCAL_TIME ( 14, 39, 25.00000000000000000, #183 ) ;
#300 = DATE_AND_TIME ( #230, #299 ) ;
#301 = DATE_AND_TIME ( #20, #144 ) ;
#302 = PERSON_AND_ORGANIZATION ( #157, #165 ) ;
#303 = CC_DESIGN_SECURITY_CLASSIFICATION ( #232, ( #115 ) ) ;
#304 = DIRECTION ( 'NONE',  ( 1.000000000000000000, 0.000000000000000000, 0.000000000000000000 ) ) ;
#305 = PERSON_AND_ORGANIZATION_ROLE ( 'classification_officer' ) ;
#306 = VECTOR ( 'NONE', #241, 1000.000000000000000 ) ;
#307 = ORIENTED_EDGE ( 'NONE', *, *, #121, .T. ) ;
ENDSEC;
END-ISO-10303-21;
