ISO-10303-21;
HEADER;
FILE_DESCRIPTION (( 'STEP AP203' ),
    '1' );
FILE_NAME ('c579.STEP',
    '2022-07-07T12:53:54',
    ( '' ),
    ( '' ),
    'SwSTEP 2.0',
    'SolidWorks 2019',
    '' );
FILE_SCHEMA (( 'CONFIG_CONTROL_DESIGN' ));
ENDSEC;

DATA;
#1 = ORIENTED_EDGE ( 'NONE', *, *, #189, .F. ) ;
#2 = ADVANCED_FACE ( 'NONE', ( #148 ), #221, .F. ) ;
#3 = UNCERTAINTY_MEASURE_WITH_UNIT (LENGTH_MEASURE( 1.000000000000000082E-05 ), #293, 'distance_accuracy_value', 'NONE');
#4 = ORIENTED_EDGE ( 'NONE', *, *, #229, .F. ) ;
#5 = VERTEX_POINT ( 'NONE', #273 ) ;
#6 = CARTESIAN_POINT ( 'NONE',  ( 0.000000000000000000, 0.000000000000000000, 3.000000000000000000 ) ) ;
#7 = CLOSED_SHELL ( 'NONE', ( #238, #301, #117, #73, #239, #2, #167, #163, #48 ) ) ;
#8 = CARTESIAN_POINT ( 'NONE',  ( 0.000000000000000000, 0.000000000000000000, 0.000000000000000000 ) ) ;
#9 = ORIENTED_EDGE ( 'NONE', *, *, #276, .F. ) ;
#10 = CARTESIAN_POINT ( 'NONE',  ( 1.800000000000000266, 0.000000000000000000, 3.000000000000004441 ) ) ;
#11 = CC_DESIGN_SECURITY_CLASSIFICATION ( #263, ( #274 ) ) ;
#12 = CARTESIAN_POINT ( 'NONE',  ( 0.000000000000000000, 0.000000000000000000, 253.0000000000000000 ) ) ;
#13 = DIRECTION ( 'NONE',  ( 0.000000000000000000, 0.000000000000000000, 1.000000000000000000 ) ) ;
#14 = ORIENTED_EDGE ( 'NONE', *, *, #229, .T. ) ;
#15 = DIRECTION ( 'NONE',  ( 1.000000000000000000, 0.000000000000000000, 0.000000000000000000 ) ) ;
#16 = CARTESIAN_POINT ( 'NONE',  ( -3.000000000000000444, 0.000000000000000000, 0.000000000000000000 ) ) ;
#17 = LINE ( 'NONE', #220, #54 ) ;
#18 = EDGE_CURVE ( 'NONE', #85, #250, #306, .T. ) ;
#19 = AXIS2_PLACEMENT_3D ( 'NONE', #159, #291, #272 ) ;
#20 = CALENDAR_DATE ( 2022, 7, 7 ) ;
#21 = PERSON_AND_ORGANIZATION ( #252, #212 ) ;
#22 = CIRCLE ( 'NONE', #193, 0.1999999999999998723 ) ;
#23 = APPLICATION_PROTOCOL_DEFINITION ( 'international standard', 'config_control_design', 1994, #165 ) ;
#24 = LOCAL_TIME ( 14, 53, 54.00000000000000000, #108 ) ;
#25 = PERSON_AND_ORGANIZATION ( #252, #212 ) ;
#26 = ORIENTED_EDGE ( 'NONE', *, *, #33, .F. ) ;
#27 = COORDINATED_UNIVERSAL_TIME_OFFSET ( 1, 0, .AHEAD. ) ;
#28 = EDGE_LOOP ( 'NONE', ( #9, #113, #115, #26 ) ) ;
#29 = EDGE_CURVE ( 'NONE', #172, #95, #244, .T. ) ;
#30 = ORIENTED_EDGE ( 'NONE', *, *, #191, .T. ) ;
#31 = AXIS2_PLACEMENT_3D ( 'NONE', #80, #37, #122 ) ;
#32 = EDGE_LOOP ( 'NONE', ( #58, #152 ) ) ;
#33 = EDGE_CURVE ( 'NONE', #78, #214, #136, .T. ) ;
#34 = ORIENTED_EDGE ( 'NONE', *, *, #29, .T. ) ;
#35 = CYLINDRICAL_SURFACE ( 'NONE', #74, 3.000000000000000444 ) ;
#36 = DIRECTION ( 'NONE',  ( 1.000000000000000000, 0.000000000000000000, 0.000000000000000000 ) ) ;
#37 = DIRECTION ( 'NONE',  ( 0.000000000000000000, 0.000000000000000000, 1.000000000000000000 ) ) ;
#38 = ORIENTED_EDGE ( 'NONE', *, *, #126, .T. ) ;
#39 = AXIS2_PLACEMENT_3D ( 'NONE', #130, #192, #225 ) ;
#40 = CARTESIAN_POINT ( 'NONE',  ( 0.000000000000000000, 0.000000000000000000, 253.0000000000000000 ) ) ;
#41 = EDGE_LOOP ( 'NONE', ( #141, #197, #275, #182 ) ) ;
#42 = CIRCLE ( 'NONE', #19, 1.600000000000000089 ) ;
#43 = CARTESIAN_POINT ( 'NONE',  ( -1.600000000000000089, 0.000000000000000000, 3.200000000000008171 ) ) ;
#44 = CC_DESIGN_PERSON_AND_ORGANIZATION_ASSIGNMENT ( #90, #261, ( #274 ) ) ;
#45 = MANIFOLD_SOLID_BREP ( 'Zaoblit1', #7 ) ;
#46 = LINE ( 'NONE', #59, #139 ) ;
#47 = DIRECTION ( 'NONE',  ( 0.000000000000000000, 0.000000000000000000, 1.000000000000000000 ) ) ;
#48 = ADVANCED_FACE ( 'NONE', ( #63 ), #164, .F. ) ;
#49 = DIRECTION ( 'NONE',  ( 0.000000000000000000, 0.000000000000000000, 1.000000000000000000 ) ) ;
#50 =( NAMED_UNIT ( * ) SI_UNIT ( $, .STERADIAN. ) SOLID_ANGLE_UNIT ( ) );
#51 = ADVANCED_BREP_SHAPE_REPRESENTATION ( 'c579', ( #45, #265 ), #87 ) ;
#52 = PERSON_AND_ORGANIZATION ( #252, #212 ) ;
#53 = CARTESIAN_POINT ( 'NONE',  ( 0.000000000000000000, 0.000000000000000000, 3.000000000000000000 ) ) ;
#54 = VECTOR ( 'NONE', #255, 1000.000000000000000 ) ;
#55 = AXIS2_PLACEMENT_3D ( 'NONE', #176, #57, #149 ) ;
#56 = DIRECTION ( 'NONE',  ( -1.000000000000000000, 1.224646799147354686E-16, 0.000000000000000000 ) ) ;
#57 = DIRECTION ( 'NONE',  ( -0.000000000000000000, -0.000000000000000000, -1.000000000000000000 ) ) ;
#58 = ORIENTED_EDGE ( 'NONE', *, *, #216, .F. ) ;
#59 = CARTESIAN_POINT ( 'NONE',  ( 3.000000000000000444, 3.673940397442060361E-16, 3.000000000000000000 ) ) ;
#60 = CC_DESIGN_PERSON_AND_ORGANIZATION_ASSIGNMENT ( #25, #162, ( #274 ) ) ;
#61 = ORIENTED_EDGE ( 'NONE', *, *, #268, .F. ) ;
#62 = FACE_BOUND ( 'NONE', #104, .T. ) ;
#63 = FACE_OUTER_BOUND ( 'NONE', #170, .T. ) ;
#64 = DIRECTION ( 'NONE',  ( 1.000000000000000000, 0.000000000000000000, 0.000000000000000000 ) ) ;
#65 = CIRCLE ( 'NONE', #96, 1.800000000000000266 ) ;
#66 = DATE_TIME_ROLE ( 'classification_date' ) ;
#67 = DATE_AND_TIME ( #282, #24 ) ;
#68 = AXIS2_PLACEMENT_3D ( 'NONE', #40, #200, #295 ) ;
#69 = CC_DESIGN_APPROVAL ( #231, ( #195 ) ) ;
#70 = DATE_AND_TIME ( #232, #286 ) ;
#71 = PERSON_AND_ORGANIZATION ( #252, #212 ) ;
#72 = PERSON_AND_ORGANIZATION ( #252, #212 ) ;
#73 = ADVANCED_FACE ( 'NONE', ( #173 ), #35, .T. ) ;
#74 = AXIS2_PLACEMENT_3D ( 'NONE', #6, #98, #82 ) ;
#75 = ORIENTED_EDGE ( 'NONE', *, *, #126, .F. ) ;
#76 = ORIENTED_EDGE ( 'NONE', *, *, #18, .F. ) ;
#77 = CIRCLE ( 'NONE', #31, 1.600000000000000089 ) ;
#78 = VERTEX_POINT ( 'NONE', #179 ) ;
#79 = CARTESIAN_POINT ( 'NONE',  ( -1.800000000000000266, 2.204364238465236069E-16, 3.200000000000008171 ) ) ;
#80 = CARTESIAN_POINT ( 'NONE',  ( 0.000000000000000000, 0.000000000000000000, 3.200000000000008171 ) ) ;
#81 = ORIENTED_EDGE ( 'NONE', *, *, #189, .T. ) ;
#82 = DIRECTION ( 'NONE',  ( -1.000000000000000000, 0.000000000000000000, 0.000000000000000000 ) ) ;
#83 = FACE_OUTER_BOUND ( 'NONE', #28, .T. ) ;
#84 = APPROVAL ( #94, 'NEURÈENÝ' ) ;
#85 = VERTEX_POINT ( 'NONE', #118 ) ;
#86 = CARTESIAN_POINT ( 'NONE',  ( -3.000000000000000444, 0.000000000000000000, 3.000000000000000000 ) ) ;
#87 =( GEOMETRIC_REPRESENTATION_CONTEXT ( 3 ) GLOBAL_UNCERTAINTY_ASSIGNED_CONTEXT ( ( #3 ) ) GLOBAL_UNIT_ASSIGNED_CONTEXT ( ( #293, #168, #50 ) ) REPRESENTATION_CONTEXT ( 'NONE', 'WORKASPACE' ) );
#88 = DIRECTION ( 'NONE',  ( -0.000000000000000000, -0.000000000000000000, -1.000000000000000000 ) ) ;
#89 = DATE_AND_TIME ( #20, #128 ) ;
#90 = PERSON_AND_ORGANIZATION ( #252, #212 ) ;
#91 = PERSON_AND_ORGANIZATION ( #252, #212 ) ;
#92 = APPROVAL_ROLE ( '' ) ;
#93 = ORIENTED_EDGE ( 'NONE', *, *, #206, .F. ) ;
#94 = APPROVAL_STATUS ( 'not_yet_approved' ) ;
#95 = VERTEX_POINT ( 'NONE', #218 ) ;
#96 = AXIS2_PLACEMENT_3D ( 'NONE', #269, #227, #132 ) ;
#97 = DIRECTION ( 'NONE',  ( 0.000000000000000000, -1.000000000000000000, 0.000000000000000000 ) ) ;
#98 = DIRECTION ( 'NONE',  ( -0.000000000000000000, -0.000000000000000000, -1.000000000000000000 ) ) ;
#99 = FACE_OUTER_BOUND ( 'NONE', #41, .T. ) ;
#100 = VERTEX_POINT ( 'NONE', #43 ) ;
#101 = PRODUCT_DEFINITION_SHAPE ( 'NONE', 'NONE',  #195 ) ;
#102 = CC_DESIGN_PERSON_AND_ORGANIZATION_ASSIGNMENT ( #72, #236, ( #195 ) ) ;
#103 = DIRECTION ( 'NONE',  ( 1.000000000000000000, 0.000000000000000000, -0.000000000000000000 ) ) ;
#104 = EDGE_LOOP ( 'NONE', ( #223, #288 ) ) ;
#105 = DIRECTION ( 'NONE',  ( 1.000000000000000000, 0.000000000000000000, 0.000000000000000000 ) ) ;
#106 = FACE_OUTER_BOUND ( 'NONE', #243, .T. ) ;
#107 = EDGE_CURVE ( 'NONE', #95, #172, #289, .T. ) ;
#108 = COORDINATED_UNIVERSAL_TIME_OFFSET ( 1, 0, .AHEAD. ) ;
#109 = SHAPE_DEFINITION_REPRESENTATION ( #101, #51 ) ;
#110 = SECURITY_CLASSIFICATION_LEVEL ( 'unclassified' ) ;
#111 = CIRCLE ( 'NONE', #188, 1.800000000000000266 ) ;
#112 = CALENDAR_DATE ( 2022, 7, 7 ) ;
#113 = ORIENTED_EDGE ( 'NONE', *, *, #119, .T. ) ;
#114 = APPROVAL_STATUS ( 'not_yet_approved' ) ;
#115 = ORIENTED_EDGE ( 'NONE', *, *, #120, .F. ) ;
#116 = AXIS2_PLACEMENT_3D ( 'NONE', #177, #271, #36 ) ;
#117 = ADVANCED_FACE ( 'NONE', ( #246 ), #267, .T. ) ;
#118 = CARTESIAN_POINT ( 'NONE',  ( 3.000000000000000444, 3.673940397442060361E-16, 3.000000000000000000 ) ) ;
#119 = EDGE_CURVE ( 'NONE', #100, #5, #22, .T. ) ;
#120 = EDGE_CURVE ( 'NONE', #214, #5, #65, .T. ) ;
#121 = CARTESIAN_POINT ( 'NONE',  ( 0.000000000000000000, 0.000000000000000000, 3.200000000000008171 ) ) ;
#122 = DIRECTION ( 'NONE',  ( 1.000000000000000000, 0.000000000000000000, 0.000000000000000000 ) ) ;
#123 = VERTEX_POINT ( 'NONE', #16 ) ;
#124 = CARTESIAN_POINT ( 'NONE',  ( 0.000000000000000000, 0.000000000000000000, 253.0000000000000000 ) ) ;
#125 = CARTESIAN_POINT ( 'NONE',  ( 0.000000000000000000, 0.000000000000000000, 0.000000000000000000 ) ) ;
#126 = EDGE_CURVE ( 'NONE', #250, #85, #144, .T. ) ;
#127 = AXIS2_PLACEMENT_3D ( 'NONE', #158, #47, #256 ) ;
#128 = LOCAL_TIME ( 14, 53, 54.00000000000000000, #258 ) ;
#129 = PLANE ( 'NONE',  #230 ) ;
#130 = CARTESIAN_POINT ( 'NONE',  ( 0.000000000000000000, 0.000000000000000000, 253.0000000000000000 ) ) ;
#131 = CARTESIAN_POINT ( 'NONE',  ( 0.000000000000000000, 0.000000000000000000, 0.000000000000000000 ) ) ;
#132 = DIRECTION ( 'NONE',  ( 1.000000000000000000, 0.000000000000000000, 0.000000000000000000 ) ) ;
#133 = CARTESIAN_POINT ( 'NONE',  ( 0.000000000000000000, 0.000000000000000000, 3.000000000000000000 ) ) ;
#134 = CARTESIAN_POINT ( 'NONE',  ( 0.000000000000000000, 0.000000000000000000, 0.000000000000000000 ) ) ;
#135 = APPROVAL_ROLE ( '' ) ;
#136 = CIRCLE ( 'NONE', #151, 0.2000000000000000944 ) ;
#137 = PERSON_AND_ORGANIZATION ( #252, #212 ) ;
#138 = CC_DESIGN_DATE_AND_TIME_ASSIGNMENT ( #234, #259, ( #195 ) ) ;
#139 = VECTOR ( 'NONE', #277, 1000.000000000000000 ) ;
#140 = APPROVAL_PERSON_ORGANIZATION ( #91, #84, #135 ) ;
#141 = ORIENTED_EDGE ( 'NONE', *, *, #29, .F. ) ;
#142 = CC_DESIGN_APPROVAL ( #84, ( #274 ) ) ;
#143 = ORIENTED_EDGE ( 'NONE', *, *, #107, .F. ) ;
#144 = CIRCLE ( 'NONE', #127, 3.000000000000000444 ) ;
#145 = ORIENTED_EDGE ( 'NONE', *, *, #216, .T. ) ;
#146 = LOCAL_TIME ( 14, 53, 54.00000000000000000, #27 ) ;
#147 = DIRECTION ( 'NONE',  ( -0.000000000000000000, -0.000000000000000000, -1.000000000000000000 ) ) ;
#148 = FACE_OUTER_BOUND ( 'NONE', #32, .T. ) ;
#149 = DIRECTION ( 'NONE',  ( -1.000000000000000000, 0.000000000000000000, 0.000000000000000000 ) ) ;
#150 = PRODUCT ( 'c579', 'c579', '', ( #207 ) ) ;
#151 = AXIS2_PLACEMENT_3D ( 'NONE', #294, #97, #253 ) ;
#152 = ORIENTED_EDGE ( 'NONE', *, *, #191, .F. ) ;
#153 = FACE_OUTER_BOUND ( 'NONE', #219, .T. ) ;
#154 = DIRECTION ( 'NONE',  ( 0.000000000000000000, 0.000000000000000000, 1.000000000000000000 ) ) ;
#155 = AXIS2_PLACEMENT_3D ( 'NONE', #205, #228, #105 ) ;
#156 = CC_DESIGN_APPROVAL ( #171, ( #263 ) ) ;
#157 = DIRECTION ( 'NONE',  ( 1.000000000000000000, 0.000000000000000000, 0.000000000000000000 ) ) ;
#158 = CARTESIAN_POINT ( 'NONE',  ( 0.000000000000000000, 0.000000000000000000, 3.000000000000000000 ) ) ;
#159 = CARTESIAN_POINT ( 'NONE',  ( 0.000000000000000000, 0.000000000000000000, 3.200000000000008171 ) ) ;
#160 = AXIS2_PLACEMENT_3D ( 'NONE', #53, #290, #248 ) ;
#161 = APPROVAL_STATUS ( 'not_yet_approved' ) ;
#162 = PERSON_AND_ORGANIZATION_ROLE ( 'creator' ) ;
#163 = ADVANCED_FACE ( 'NONE', ( #106 ), #129, .T. ) ;
#164 = TOROIDAL_SURFACE ( 'NONE', #185, 1.800000000000000266, 0.2000000000000000111 ) ;
#165 = APPLICATION_CONTEXT ( 'configuration controlled 3d designs of mechanical parts and assemblies' ) ;
#166 = CALENDAR_DATE ( 2022, 7, 7 ) ;
#167 = ADVANCED_FACE ( 'NONE', ( #153 ), #178, .T. ) ;
#168 =( NAMED_UNIT ( * ) PLANE_ANGLE_UNIT ( ) SI_UNIT ( $, .RADIAN. ) );
#169 = ORIENTED_EDGE ( 'NONE', *, *, #107, .T. ) ;
#170 = EDGE_LOOP ( 'NONE', ( #307, #93, #283, #264 ) ) ;
#171 = APPROVAL ( #161, 'NEURÈENÝ' ) ;
#172 = VERTEX_POINT ( 'NONE', #222 ) ;
#173 = FACE_OUTER_BOUND ( 'NONE', #241, .T. ) ;
#174 = DIRECTION ( 'NONE',  ( 1.224646799147353207E-16, 1.000000000000000000, -0.000000000000000000 ) ) ;
#175 = VECTOR ( 'NONE', #247, 1000.000000000000000 ) ;
#176 = CARTESIAN_POINT ( 'NONE',  ( 0.000000000000000000, 0.000000000000000000, 253.0000000000000000 ) ) ;
#177 = CARTESIAN_POINT ( 'NONE',  ( 0.000000000000000000, 0.000000000000000000, 3.000000000000000000 ) ) ;
#178 = CYLINDRICAL_SURFACE ( 'NONE', #68, 1.600000000000000089 ) ;
#179 = CARTESIAN_POINT ( 'NONE',  ( 1.600000000000000089, 1.959434878635765230E-16, 3.200000000000008171 ) ) ;
#180 = DIRECTION ( 'NONE',  ( 0.000000000000000000, 0.000000000000000000, 1.000000000000000000 ) ) ;
#181 = APPLICATION_CONTEXT ( 'configuration controlled 3d designs of mechanical parts and assemblies' ) ;
#182 = ORIENTED_EDGE ( 'NONE', *, *, #203, .F. ) ;
#183 = LINE ( 'NONE', #278, #175 ) ;
#184 = PLANE ( 'NONE',  #204 ) ;
#185 = AXIS2_PLACEMENT_3D ( 'NONE', #121, #245, #199 ) ;
#186 = APPROVAL_DATE_TIME ( #89, #171 ) ;
#187 = VERTEX_POINT ( 'NONE', #257 ) ;
#188 = AXIS2_PLACEMENT_3D ( 'NONE', #133, #88, #157 ) ;
#189 = EDGE_CURVE ( 'NONE', #85, #187, #46, .T. ) ;
#190 = EDGE_LOOP ( 'NONE', ( #76, #81, #30, #4 ) ) ;
#191 = EDGE_CURVE ( 'NONE', #187, #123, #284, .T. ) ;
#192 = DIRECTION ( 'NONE',  ( 0.000000000000000000, 0.000000000000000000, 1.000000000000000000 ) ) ;
#193 = AXIS2_PLACEMENT_3D ( 'NONE', #79, #174, #56 ) ;
#194 = ORIENTED_EDGE ( 'NONE', *, *, #276, .T. ) ;
#195 = PRODUCT_DEFINITION ( 'NEZNÁMÝ', '', #274, #300 ) ;
#196 = CYLINDRICAL_SURFACE ( 'NONE', #55, 1.600000000000000089 ) ;
#197 = ORIENTED_EDGE ( 'NONE', *, *, #268, .T. ) ;
#198 = APPROVAL_PERSON_ORGANIZATION ( #21, #171, #92 ) ;
#199 = DIRECTION ( 'NONE',  ( 1.000000000000000000, 0.000000000000000000, 0.000000000000000000 ) ) ;
#200 = DIRECTION ( 'NONE',  ( -0.000000000000000000, -0.000000000000000000, -1.000000000000000000 ) ) ;
#201 = DIRECTION ( 'NONE',  ( 0.000000000000000000, 0.000000000000000000, 1.000000000000000000 ) ) ;
#202 = CARTESIAN_POINT ( 'NONE',  ( 0.000000000000000000, 0.000000000000000000, 3.000000000000000000 ) ) ;
#203 = EDGE_CURVE ( 'NONE', #95, #100, #226, .T. ) ;
#204 = AXIS2_PLACEMENT_3D ( 'NONE', #202, #297, #249 ) ;
#205 = CARTESIAN_POINT ( 'NONE',  ( 0.000000000000000000, 0.000000000000000000, 3.200000000000008171 ) ) ;
#206 = EDGE_CURVE ( 'NONE', #78, #100, #42, .T. ) ;
#207 = MECHANICAL_CONTEXT ( 'NONE', #165, 'mechanical' ) ;
#208 = CC_DESIGN_PERSON_AND_ORGANIZATION_ASSIGNMENT ( #137, #304, ( #150 ) ) ;
#209 = CIRCLE ( 'NONE', #251, 3.000000000000000444 ) ;
#210 = APPROVAL_DATE_TIME ( #70, #84 ) ;
#211 = AXIS2_PLACEMENT_3D ( 'NONE', #131, #180, #64 ) ;
#212 = ORGANIZATION ( 'NEURÈENÝ', 'NEURÈENÝ', '' ) ;
#213 = DATE_AND_TIME ( #112, #146 ) ;
#214 = VERTEX_POINT ( 'NONE', #10 ) ;
#215 = DIRECTION ( 'NONE',  ( 0.000000000000000000, 0.000000000000000000, 1.000000000000000000 ) ) ;
#216 = EDGE_CURVE ( 'NONE', #123, #187, #209, .T. ) ;
#217 = ORIENTED_EDGE ( 'NONE', *, *, #203, .T. ) ;
#218 = CARTESIAN_POINT ( 'NONE',  ( -1.600000000000000089, 0.000000000000000000, 253.0000000000000000 ) ) ;
#219 = EDGE_LOOP ( 'NONE', ( #61, #143, #217, #194 ) ) ;
#220 = CARTESIAN_POINT ( 'NONE',  ( -3.000000000000000444, 0.000000000000000000, 3.000000000000000000 ) ) ;
#221 = PLANE ( 'NONE',  #303 ) ;
#222 = CARTESIAN_POINT ( 'NONE',  ( 1.600000000000000089, 1.959434878635765230E-16, 253.0000000000000000 ) ) ;
#223 = ORIENTED_EDGE ( 'NONE', *, *, #120, .T. ) ;
#224 = EDGE_CURVE ( 'NONE', #5, #214, #111, .T. ) ;
#225 = DIRECTION ( 'NONE',  ( 1.000000000000000000, 0.000000000000000000, 0.000000000000000000 ) ) ;
#226 = LINE ( 'NONE', #270, #242 ) ;
#227 = DIRECTION ( 'NONE',  ( -0.000000000000000000, -0.000000000000000000, -1.000000000000000000 ) ) ;
#228 = DIRECTION ( 'NONE',  ( 0.000000000000000000, 0.000000000000000000, 1.000000000000000000 ) ) ;
#229 = EDGE_CURVE ( 'NONE', #250, #123, #17, .T. ) ;
#230 = AXIS2_PLACEMENT_3D ( 'NONE', #124, #13, #103 ) ;
#231 = APPROVAL ( #114, 'NEURÈENÝ' ) ;
#232 = CALENDAR_DATE ( 2022, 7, 7 ) ;
#233 = PRODUCT_RELATED_PRODUCT_CATEGORY ( 'detail', '', ( #150 ) ) ;
#234 = DATE_AND_TIME ( #166, #298 ) ;
#235 = PERSON_AND_ORGANIZATION_ROLE ( 'classification_officer' ) ;
#236 = PERSON_AND_ORGANIZATION_ROLE ( 'creator' ) ;
#237 = CC_DESIGN_DATE_AND_TIME_ASSIGNMENT ( #213, #66, ( #263 ) ) ;
#238 = ADVANCED_FACE ( 'NONE', ( #83 ), #285, .F. ) ;
#239 = ADVANCED_FACE ( 'NONE', ( #62, #299 ), #184, .T. ) ;
#240 = EDGE_LOOP ( 'NONE', ( #38, #266 ) ) ;
#241 = EDGE_LOOP ( 'NONE', ( #1, #75, #14, #145 ) ) ;
#242 = VECTOR ( 'NONE', #147, 1000.000000000000000 ) ;
#243 = EDGE_LOOP ( 'NONE', ( #169, #34 ) ) ;
#244 = CIRCLE ( 'NONE', #279, 1.600000000000000089 ) ;
#245 = DIRECTION ( 'NONE',  ( 0.000000000000000000, 0.000000000000000000, 1.000000000000000000 ) ) ;
#246 = FACE_OUTER_BOUND ( 'NONE', #190, .T. ) ;
#247 = DIRECTION ( 'NONE',  ( -0.000000000000000000, -0.000000000000000000, -1.000000000000000000 ) ) ;
#248 = DIRECTION ( 'NONE',  ( -1.000000000000000000, 0.000000000000000000, 0.000000000000000000 ) ) ;
#249 = DIRECTION ( 'NONE',  ( 1.000000000000000000, 0.000000000000000000, -0.000000000000000000 ) ) ;
#250 = VERTEX_POINT ( 'NONE', #86 ) ;
#251 = AXIS2_PLACEMENT_3D ( 'NONE', #8, #49, #15 ) ;
#252 = PERSON ( 'NEURÈENÝ', 'NEURÈENÝ', 'NEURÈENÝ', ('NEURÈENÝ'), ('NEURÈENÝ'), ('NEURÈENÝ') ) ;
#253 = DIRECTION ( 'NONE',  ( 0.000000000000000000, 0.000000000000000000, -1.000000000000000000 ) ) ;
#254 = APPROVAL_PERSON_ORGANIZATION ( #71, #231, #280 ) ;
#255 = DIRECTION ( 'NONE',  ( -0.000000000000000000, -0.000000000000000000, -1.000000000000000000 ) ) ;
#256 = DIRECTION ( 'NONE',  ( 1.000000000000000000, 0.000000000000000000, 0.000000000000000000 ) ) ;
#257 = CARTESIAN_POINT ( 'NONE',  ( 3.000000000000000444, 3.673940397442060361E-16, 0.000000000000000000 ) ) ;
#258 = COORDINATED_UNIVERSAL_TIME_OFFSET ( 1, 0, .AHEAD. ) ;
#259 = DATE_TIME_ROLE ( 'creation_date' ) ;
#260 = APPLICATION_PROTOCOL_DEFINITION ( 'international standard', 'config_control_design', 1994, #181 ) ;
#261 = PERSON_AND_ORGANIZATION_ROLE ( 'design_supplier' ) ;
#262 = DIRECTION ( 'NONE',  ( 1.000000000000000000, 0.000000000000000000, 0.000000000000000000 ) ) ;
#263 = SECURITY_CLASSIFICATION ( '', '', #110 ) ;
#264 = ORIENTED_EDGE ( 'NONE', *, *, #224, .F. ) ;
#265 = AXIS2_PLACEMENT_3D ( 'NONE', #134, #215, #262 ) ;
#266 = ORIENTED_EDGE ( 'NONE', *, *, #18, .T. ) ;
#267 = CYLINDRICAL_SURFACE ( 'NONE', #160, 3.000000000000000444 ) ;
#268 = EDGE_CURVE ( 'NONE', #172, #78, #183, .T. ) ;
#269 = CARTESIAN_POINT ( 'NONE',  ( 0.000000000000000000, 0.000000000000000000, 3.000000000000000000 ) ) ;
#270 = CARTESIAN_POINT ( 'NONE',  ( -1.600000000000000089, 0.000000000000000000, 253.0000000000000000 ) ) ;
#271 = DIRECTION ( 'NONE',  ( 0.000000000000000000, 0.000000000000000000, 1.000000000000000000 ) ) ;
#272 = DIRECTION ( 'NONE',  ( 1.000000000000000000, 0.000000000000000000, 0.000000000000000000 ) ) ;
#273 = CARTESIAN_POINT ( 'NONE',  ( -1.800000000000000266, 2.204364238465236069E-16, 3.000000000000004441 ) ) ;
#274 = PRODUCT_DEFINITION_FORMATION_WITH_SPECIFIED_SOURCE ( 'LIBOVOLNÝ', '', #150, .NOT_KNOWN. ) ;
#275 = ORIENTED_EDGE ( 'NONE', *, *, #206, .T. ) ;
#276 = EDGE_CURVE ( 'NONE', #100, #78, #77, .T. ) ;
#277 = DIRECTION ( 'NONE',  ( -0.000000000000000000, -0.000000000000000000, -1.000000000000000000 ) ) ;
#278 = CARTESIAN_POINT ( 'NONE',  ( 1.600000000000000089, 1.959434878635765230E-16, 253.0000000000000000 ) ) ;
#279 = AXIS2_PLACEMENT_3D ( 'NONE', #12, #154, #296 ) ;
#280 = APPROVAL_ROLE ( '' ) ;
#281 = COORDINATED_UNIVERSAL_TIME_OFFSET ( 1, 0, .AHEAD. ) ;
#282 = CALENDAR_DATE ( 2022, 7, 7 ) ;
#283 = ORIENTED_EDGE ( 'NONE', *, *, #33, .T. ) ;
#284 = CIRCLE ( 'NONE', #211, 3.000000000000000444 ) ;
#285 = TOROIDAL_SURFACE ( 'NONE', #155, 1.800000000000000266, 0.2000000000000000111 ) ;
#286 = LOCAL_TIME ( 14, 53, 54.00000000000000000, #281 ) ;
#287 = CC_DESIGN_PERSON_AND_ORGANIZATION_ASSIGNMENT ( #52, #235, ( #263 ) ) ;
#288 = ORIENTED_EDGE ( 'NONE', *, *, #224, .T. ) ;
#289 = CIRCLE ( 'NONE', #39, 1.600000000000000089 ) ;
#290 = DIRECTION ( 'NONE',  ( -0.000000000000000000, -0.000000000000000000, -1.000000000000000000 ) ) ;
#291 = DIRECTION ( 'NONE',  ( 0.000000000000000000, 0.000000000000000000, 1.000000000000000000 ) ) ;
#292 = DIRECTION ( 'NONE',  ( 1.000000000000000000, 0.000000000000000000, -0.000000000000000000 ) ) ;
#293 =( LENGTH_UNIT ( ) NAMED_UNIT ( * ) SI_UNIT ( .MILLI., .METRE. ) );
#294 = CARTESIAN_POINT ( 'NONE',  ( 1.800000000000000266, 0.000000000000000000, 3.200000000000008171 ) ) ;
#295 = DIRECTION ( 'NONE',  ( -1.000000000000000000, 0.000000000000000000, 0.000000000000000000 ) ) ;
#296 = DIRECTION ( 'NONE',  ( 1.000000000000000000, 0.000000000000000000, 0.000000000000000000 ) ) ;
#297 = DIRECTION ( 'NONE',  ( 0.000000000000000000, 0.000000000000000000, 1.000000000000000000 ) ) ;
#298 = LOCAL_TIME ( 14, 53, 54.00000000000000000, #305 ) ;
#299 = FACE_OUTER_BOUND ( 'NONE', #240, .T. ) ;
#300 = DESIGN_CONTEXT ( 'detailed design', #181, 'design' ) ;
#301 = ADVANCED_FACE ( 'NONE', ( #99 ), #196, .T. ) ;
#302 = APPROVAL_DATE_TIME ( #67, #231 ) ;
#303 = AXIS2_PLACEMENT_3D ( 'NONE', #125, #201, #292 ) ;
#304 = PERSON_AND_ORGANIZATION_ROLE ( 'design_owner' ) ;
#305 = COORDINATED_UNIVERSAL_TIME_OFFSET ( 1, 0, .AHEAD. ) ;
#306 = CIRCLE ( 'NONE', #116, 3.000000000000000444 ) ;
#307 = ORIENTED_EDGE ( 'NONE', *, *, #119, .F. ) ;
ENDSEC;
END-ISO-10303-21;
