ISO-10303-21;
HEADER;
FILE_DESCRIPTION (( 'STEP AP203' ),
    '1' );
FILE_NAME ('34f7.STEP',
    '2022-07-07T12:34:22',
    ( '' ),
    ( '' ),
    'SwSTEP 2.0',
    'SolidWorks 2019',
    '' );
FILE_SCHEMA (( 'CONFIG_CONTROL_DESIGN' ));
ENDSEC;

DATA;
#1 = EDGE_CURVE ( 'NONE', #185, #225, #244, .T. ) ;
#2 = DIRECTION ( 'NONE',  ( -0.000000000000000000, -0.000000000000000000, -1.000000000000000000 ) ) ;
#3 = PRODUCT_DEFINITION_SHAPE ( 'NONE', 'NONE',  #79 ) ;
#4 = CARTESIAN_POINT ( 'NONE',  ( 0.000000000000000000, 0.000000000000000000, 5.000000000000000000 ) ) ;
#5 = DIRECTION ( 'NONE',  ( 0.000000000000000000, 0.000000000000000000, 1.000000000000000000 ) ) ;
#6 = CARTESIAN_POINT ( 'NONE',  ( 0.000000000000000000, 0.000000000000000000, 205.0000000000000284 ) ) ;
#7 = CARTESIAN_POINT ( 'NONE',  ( 0.000000000000000000, 0.000000000000000000, 5.000000000000000000 ) ) ;
#8 = EDGE_CURVE ( 'NONE', #35, #305, #52, .T. ) ;
#9 = DATE_AND_TIME ( #208, #90 ) ;
#10 = AXIS2_PLACEMENT_3D ( 'NONE', #237, #265, #261 ) ;
#11 = CIRCLE ( 'NONE', #167, 4.200000000000000178 ) ;
#12 = PERSON_AND_ORGANIZATION_ROLE ( 'design_owner' ) ;
#13 = LINE ( 'NONE', #135, #233 ) ;
#14 = DATE_TIME_ROLE ( 'creation_date' ) ;
#15 = ORIENTED_EDGE ( 'NONE', *, *, #159, .T. ) ;
#16 = APPROVAL_PERSON_ORGANIZATION ( #142, #103, #23 ) ;
#17 = APPROVAL_DATE_TIME ( #277, #28 ) ;
#18 = ORIENTED_EDGE ( 'NONE', *, *, #262, .F. ) ;
#19 = AXIS2_PLACEMENT_3D ( 'NONE', #7, #169, #191 ) ;
#20 = AXIS2_PLACEMENT_3D ( 'NONE', #22, #271, #64 ) ;
#21 = COORDINATED_UNIVERSAL_TIME_OFFSET ( 1, 0, .AHEAD. ) ;
#22 = CARTESIAN_POINT ( 'NONE',  ( 0.000000000000000000, 0.000000000000000000, 5.200000000000009948 ) ) ;
#23 = APPROVAL_ROLE ( '' ) ;
#24 = EDGE_LOOP ( 'NONE', ( #33, #296 ) ) ;
#25 = FACE_OUTER_BOUND ( 'NONE', #230, .T. ) ;
#26 = CARTESIAN_POINT ( 'NONE',  ( 0.000000000000000000, 0.000000000000000000, 5.000000000000000000 ) ) ;
#27 = DIRECTION ( 'NONE',  ( 1.000000000000000000, 0.000000000000000000, 0.000000000000000000 ) ) ;
#28 = APPROVAL ( #224, 'NEURÈENÝ' ) ;
#29 = CYLINDRICAL_SURFACE ( 'NONE', #19, 7.000000000000000000 ) ;
#30 = AXIS2_PLACEMENT_3D ( 'NONE', #100, #172, #122 ) ;
#31 =( GEOMETRIC_REPRESENTATION_CONTEXT ( 3 ) GLOBAL_UNCERTAINTY_ASSIGNED_CONTEXT ( ( #63 ) ) GLOBAL_UNIT_ASSIGNED_CONTEXT ( ( #264, #177, #104 ) ) REPRESENTATION_CONTEXT ( 'NONE', 'WORKASPACE' ) );
#32 = ORIENTED_EDGE ( 'NONE', *, *, #284, .F. ) ;
#33 = ORIENTED_EDGE ( 'NONE', *, *, #8, .F. ) ;
#34 = EDGE_CURVE ( 'NONE', #185, #129, #62, .T. ) ;
#35 = VERTEX_POINT ( 'NONE', #168 ) ;
#36 = SHAPE_DEFINITION_REPRESENTATION ( #3, #176 ) ;
#37 = DIRECTION ( 'NONE',  ( -1.000000000000000000, 0.000000000000000000, 0.000000000000000000 ) ) ;
#38 = EDGE_CURVE ( 'NONE', #201, #302, #195, .T. ) ;
#39 = CALENDAR_DATE ( 2022, 7, 7 ) ;
#40 = ORIENTED_EDGE ( 'NONE', *, *, #218, .F. ) ;
#41 = PERSON_AND_ORGANIZATION_ROLE ( 'design_supplier' ) ;
#42 = CARTESIAN_POINT ( 'NONE',  ( -7.000000000000000000, 0.000000000000000000, 5.000000000000000000 ) ) ;
#43 = ORIENTED_EDGE ( 'NONE', *, *, #303, .T. ) ;
#44 = COORDINATED_UNIVERSAL_TIME_OFFSET ( 1, 0, .AHEAD. ) ;
#45 = ORIENTED_EDGE ( 'NONE', *, *, #303, .F. ) ;
#46 = EDGE_CURVE ( 'NONE', #129, #137, #294, .T. ) ;
#47 = DIRECTION ( 'NONE',  ( 1.000000000000000000, 0.000000000000000000, 0.000000000000000000 ) ) ;
#48 = PRODUCT ( '34f7', '34f7', '', ( #255 ) ) ;
#49 = CARTESIAN_POINT ( 'NONE',  ( 0.000000000000000000, 0.000000000000000000, 5.000000000000000000 ) ) ;
#50 = ADVANCED_FACE ( 'NONE', ( #256 ), #93, .F. ) ;
#51 = DIRECTION ( 'NONE',  ( 0.000000000000000000, 0.000000000000000000, 1.000000000000000000 ) ) ;
#52 = CIRCLE ( 'NONE', #84, 7.000000000000000000 ) ;
#53 = APPLICATION_CONTEXT ( 'configuration controlled 3d designs of mechanical parts and assemblies' ) ;
#54 = DIRECTION ( 'NONE',  ( 1.000000000000000000, 0.000000000000000000, -0.000000000000000000 ) ) ;
#55 = TOROIDAL_SURFACE ( 'NONE', #30, 4.200000000000000178, 0.2000000000000000111 ) ;
#56 = ORIENTED_EDGE ( 'NONE', *, *, #1, .T. ) ;
#57 = EDGE_LOOP ( 'NONE', ( #70, #154, #43, #139 ) ) ;
#58 = CC_DESIGN_DATE_AND_TIME_ASSIGNMENT ( #273, #14, ( #79 ) ) ;
#59 = ORIENTED_EDGE ( 'NONE', *, *, #46, .F. ) ;
#60 = AXIS2_PLACEMENT_3D ( 'NONE', #188, #307, #278 ) ;
#61 = ORIENTED_EDGE ( 'NONE', *, *, #96, .T. ) ;
#62 = LINE ( 'NONE', #228, #216 ) ;
#63 = UNCERTAINTY_MEASURE_WITH_UNIT (LENGTH_MEASURE( 1.000000000000000082E-05 ), #264, 'distance_accuracy_value', 'NONE');
#64 = DIRECTION ( 'NONE',  ( 1.000000000000000000, 0.000000000000000000, 0.000000000000000000 ) ) ;
#65 = APPROVAL_PERSON_ORGANIZATION ( #231, #28, #109 ) ;
#66 = VERTEX_POINT ( 'NONE', #42 ) ;
#67 = CALENDAR_DATE ( 2022, 7, 7 ) ;
#68 = FACE_OUTER_BOUND ( 'NONE', #114, .T. ) ;
#69 = APPROVAL_ROLE ( '' ) ;
#70 = ORIENTED_EDGE ( 'NONE', *, *, #239, .F. ) ;
#71 = EDGE_CURVE ( 'NONE', #66, #179, #212, .T. ) ;
#72 = ORGANIZATION ( 'NEURÈENÝ', 'NEURÈENÝ', '' ) ;
#73 = CARTESIAN_POINT ( 'NONE',  ( -4.200000000000000178, 5.143516556418882928E-16, 5.000000000000005329 ) ) ;
#74 = ADVANCED_FACE ( 'NONE', ( #68 ), #181, .T. ) ;
#75 = FACE_OUTER_BOUND ( 'NONE', #24, .T. ) ;
#76 = PLANE ( 'NONE',  #77 ) ;
#77 = AXIS2_PLACEMENT_3D ( 'NONE', #4, #282, #125 ) ;
#78 = LINE ( 'NONE', #174, #268 ) ;
#79 = PRODUCT_DEFINITION ( 'NEZNÁMÝ', '', #286, #253 ) ;
#80 = ORIENTED_EDGE ( 'NONE', *, *, #38, .F. ) ;
#81 = ORIENTED_EDGE ( 'NONE', *, *, #34, .T. ) ;
#82 = EDGE_LOOP ( 'NONE', ( #158, #211 ) ) ;
#83 = ADVANCED_FACE ( 'NONE', ( #97 ), #189, .T. ) ;
#84 = AXIS2_PLACEMENT_3D ( 'NONE', #236, #209, #163 ) ;
#85 = DATE_AND_TIME ( #67, #160 ) ;
#86 = AXIS2_PLACEMENT_3D ( 'NONE', #49, #101, #285 ) ;
#87 = DIRECTION ( 'NONE',  ( 1.224646799147353207E-16, 1.000000000000000000, -0.000000000000000000 ) ) ;
#88 = APPROVAL_DATE_TIME ( #166, #103 ) ;
#89 = DIRECTION ( 'NONE',  ( 1.000000000000000000, 0.000000000000000000, 0.000000000000000000 ) ) ;
#90 = LOCAL_TIME ( 14, 34, 22.00000000000000000, #21 ) ;
#91 = PERSON ( 'NEURÈENÝ', 'NEURÈENÝ', 'NEURÈENÝ', ('NEURÈENÝ'), ('NEURÈENÝ'), ('NEURÈENÝ') ) ;
#92 = ORIENTED_EDGE ( 'NONE', *, *, #126, .T. ) ;
#93 = TOROIDAL_SURFACE ( 'NONE', #20, 4.200000000000000178, 0.2000000000000000111 ) ;
#94 = PERSON_AND_ORGANIZATION_ROLE ( 'classification_officer' ) ;
#95 = DIRECTION ( 'NONE',  ( 0.000000000000000000, 0.000000000000000000, -1.000000000000000000 ) ) ;
#96 = EDGE_CURVE ( 'NONE', #66, #35, #13, .T. ) ;
#97 = FACE_OUTER_BOUND ( 'NONE', #57, .T. ) ;
#98 = CARTESIAN_POINT ( 'NONE',  ( 7.000000000000000000, 8.572527594031473190E-16, 5.000000000000000000 ) ) ;
#99 = CARTESIAN_POINT ( 'NONE',  ( 0.000000000000000000, 0.000000000000000000, 5.200000000000009948 ) ) ;
#100 = CARTESIAN_POINT ( 'NONE',  ( 0.000000000000000000, 0.000000000000000000, 5.200000000000009948 ) ) ;
#101 = DIRECTION ( 'NONE',  ( 0.000000000000000000, 0.000000000000000000, 1.000000000000000000 ) ) ;
#102 = LINE ( 'NONE', #98, #204 ) ;
#103 = APPROVAL ( #235, 'NEURÈENÝ' ) ;
#104 =( NAMED_UNIT ( * ) SI_UNIT ( $, .STERADIAN. ) SOLID_ANGLE_UNIT ( ) );
#105 = APPLICATION_PROTOCOL_DEFINITION ( 'international standard', 'config_control_design', 1994, #53 ) ;
#106 = ORIENTED_EDGE ( 'NONE', *, *, #144, .T. ) ;
#107 = AXIS2_PLACEMENT_3D ( 'NONE', #26, #123, #150 ) ;
#108 = CLOSED_SHELL ( 'NONE', ( #248, #83, #290, #74, #131, #203, #151, #234, #50 ) ) ;
#109 = APPROVAL_ROLE ( '' ) ;
#110 = EDGE_LOOP ( 'NONE', ( #59, #45, #222, #32 ) ) ;
#111 = AXIS2_PLACEMENT_3D ( 'NONE', #112, #299, #89 ) ;
#112 = CARTESIAN_POINT ( 'NONE',  ( 0.000000000000000000, 0.000000000000000000, 0.000000000000000000 ) ) ;
#113 = APPROVAL_STATUS ( 'not_yet_approved' ) ;
#114 = EDGE_LOOP ( 'NONE', ( #18, #275, #61, #292 ) ) ;
#115 = CC_DESIGN_APPROVAL ( #103, ( #164 ) ) ;
#116 = PERSON_AND_ORGANIZATION_ROLE ( 'creator' ) ;
#117 = DIRECTION ( 'NONE',  ( 0.000000000000000000, 0.000000000000000000, 1.000000000000000000 ) ) ;
#118 = CIRCLE ( 'NONE', #86, 7.000000000000000000 ) ;
#119 = DIRECTION ( 'NONE',  ( 1.000000000000000000, 0.000000000000000000, 0.000000000000000000 ) ) ;
#120 = DIRECTION ( 'NONE',  ( 1.000000000000000000, 0.000000000000000000, 0.000000000000000000 ) ) ;
#121 = FACE_OUTER_BOUND ( 'NONE', #232, .T. ) ;
#122 = DIRECTION ( 'NONE',  ( 1.000000000000000000, 0.000000000000000000, 0.000000000000000000 ) ) ;
#123 = DIRECTION ( 'NONE',  ( -0.000000000000000000, -0.000000000000000000, -1.000000000000000000 ) ) ;
#124 = CARTESIAN_POINT ( 'NONE',  ( 4.000000000000000000, 4.898587196589412829E-16, 205.0000000000000284 ) ) ;
#125 = DIRECTION ( 'NONE',  ( 1.000000000000000000, 0.000000000000000000, -0.000000000000000000 ) ) ;
#126 = EDGE_CURVE ( 'NONE', #305, #35, #260, .T. ) ;
#127 = AXIS2_PLACEMENT_3D ( 'NONE', #257, #161, #141 ) ;
#128 = CC_DESIGN_PERSON_AND_ORGANIZATION_ASSIGNMENT ( #304, #94, ( #164 ) ) ;
#129 = VERTEX_POINT ( 'NONE', #162 ) ;
#130 = AXIS2_PLACEMENT_3D ( 'NONE', #281, #252, #37 ) ;
#131 = ADVANCED_FACE ( 'NONE', ( #254, #240 ), #76, .T. ) ;
#132 = APPLICATION_PROTOCOL_DEFINITION ( 'international standard', 'config_control_design', 1994, #238 ) ;
#133 = ORIENTED_EDGE ( 'NONE', *, *, #159, .F. ) ;
#134 = DATE_TIME_ROLE ( 'classification_date' ) ;
#135 = CARTESIAN_POINT ( 'NONE',  ( -7.000000000000000000, 0.000000000000000000, 5.000000000000000000 ) ) ;
#136 = DIRECTION ( 'NONE',  ( 0.000000000000000000, 0.000000000000000000, 1.000000000000000000 ) ) ;
#137 = VERTEX_POINT ( 'NONE', #73 ) ;
#138 = PERSON_AND_ORGANIZATION ( #91, #72 ) ;
#139 = ORIENTED_EDGE ( 'NONE', *, *, #34, .F. ) ;
#140 = PRODUCT_RELATED_PRODUCT_CATEGORY ( 'detail', '', ( #48 ) ) ;
#141 = DIRECTION ( 'NONE',  ( -1.000000000000000000, 0.000000000000000000, 0.000000000000000000 ) ) ;
#142 = PERSON_AND_ORGANIZATION ( #91, #72 ) ;
#143 = EDGE_LOOP ( 'NONE', ( #56, #250 ) ) ;
#144 = EDGE_CURVE ( 'NONE', #129, #201, #283, .T. ) ;
#145 = CARTESIAN_POINT ( 'NONE',  ( 7.000000000000000000, 8.572527594031473190E-16, 0.000000000000000000 ) ) ;
#146 = DIRECTION ( 'NONE',  ( -0.000000000000000000, -0.000000000000000000, -1.000000000000000000 ) ) ;
#147 = CIRCLE ( 'NONE', #297, 4.000000000000000000 ) ;
#148 = AXIS2_PLACEMENT_3D ( 'NONE', #306, #136, #119 ) ;
#149 = CARTESIAN_POINT ( 'NONE',  ( 4.000000000000000000, 4.898587196589412829E-16, 5.200000000000009948 ) ) ;
#150 = DIRECTION ( 'NONE',  ( 1.000000000000000000, 0.000000000000000000, 0.000000000000000000 ) ) ;
#151 = ADVANCED_FACE ( 'NONE', ( #121 ), #152, .T. ) ;
#152 = CYLINDRICAL_SURFACE ( 'NONE', #289, 4.000000000000000000 ) ;
#153 = AXIS2_PLACEMENT_3D ( 'NONE', #272, #87, #213 ) ;
#154 = ORIENTED_EDGE ( 'NONE', *, *, #267, .T. ) ;
#155 = APPROVAL ( #113, 'NEURÈENÝ' ) ;
#156 = ORIENTED_EDGE ( 'NONE', *, *, #1, .F. ) ;
#157 = CC_DESIGN_APPROVAL ( #155, ( #286 ) ) ;
#158 = ORIENTED_EDGE ( 'NONE', *, *, #218, .T. ) ;
#159 = EDGE_CURVE ( 'NONE', #179, #66, #118, .T. ) ;
#160 = LOCAL_TIME ( 14, 34, 22.00000000000000000, #187 ) ;
#161 = DIRECTION ( 'NONE',  ( -0.000000000000000000, -0.000000000000000000, -1.000000000000000000 ) ) ;
#162 = CARTESIAN_POINT ( 'NONE',  ( -4.000000000000000000, 0.000000000000000000, 5.200000000000009948 ) ) ;
#163 = DIRECTION ( 'NONE',  ( 1.000000000000000000, 0.000000000000000000, 0.000000000000000000 ) ) ;
#164 = SECURITY_CLASSIFICATION ( '', '', #298 ) ;
#165 = DIRECTION ( 'NONE',  ( 0.000000000000000000, -1.000000000000000000, 0.000000000000000000 ) ) ;
#166 = DATE_AND_TIME ( #258, #279 ) ;
#167 = AXIS2_PLACEMENT_3D ( 'NONE', #266, #196, #27 ) ;
#168 = CARTESIAN_POINT ( 'NONE',  ( -7.000000000000000000, 0.000000000000000000, 0.000000000000000000 ) ) ;
#169 = DIRECTION ( 'NONE',  ( -0.000000000000000000, -0.000000000000000000, -1.000000000000000000 ) ) ;
#170 = DIRECTION ( 'NONE',  ( 1.000000000000000000, 0.000000000000000000, -0.000000000000000000 ) ) ;
#171 = AXIS2_PLACEMENT_3D ( 'NONE', #243, #5, #54 ) ;
#172 = DIRECTION ( 'NONE',  ( 0.000000000000000000, 0.000000000000000000, 1.000000000000000000 ) ) ;
#173 = DIRECTION ( 'NONE',  ( 1.000000000000000000, 0.000000000000000000, 0.000000000000000000 ) ) ;
#174 = CARTESIAN_POINT ( 'NONE',  ( 4.000000000000000000, 4.898587196589412829E-16, 205.0000000000000284 ) ) ;
#175 = CIRCLE ( 'NONE', #10, 4.000000000000000000 ) ;
#176 = ADVANCED_BREP_SHAPE_REPRESENTATION ( '34f7', ( #180, #148 ), #31 ) ;
#177 =( NAMED_UNIT ( * ) PLANE_ANGLE_UNIT ( ) SI_UNIT ( $, .RADIAN. ) );
#178 = ORIENTED_EDGE ( 'NONE', *, *, #262, .T. ) ;
#179 = VERTEX_POINT ( 'NONE', #263 ) ;
#180 = MANIFOLD_SOLID_BREP ( 'Zaoblit1', #108 ) ;
#181 = CYLINDRICAL_SURFACE ( 'NONE', #127, 7.000000000000000000 ) ;
#182 = CARTESIAN_POINT ( 'NONE',  ( 0.000000000000000000, 0.000000000000000000, 205.0000000000000284 ) ) ;
#183 = CC_DESIGN_PERSON_AND_ORGANIZATION_ASSIGNMENT ( #270, #210, ( #79 ) ) ;
#184 = PERSON_AND_ORGANIZATION ( #91, #72 ) ;
#185 = VERTEX_POINT ( 'NONE', #220 ) ;
#186 = AXIS2_PLACEMENT_3D ( 'NONE', #182, #117, #120 ) ;
#187 = COORDINATED_UNIVERSAL_TIME_OFFSET ( 1, 0, .AHEAD. ) ;
#188 = CARTESIAN_POINT ( 'NONE',  ( 0.000000000000000000, 0.000000000000000000, 5.000000000000000000 ) ) ;
#189 = CYLINDRICAL_SURFACE ( 'NONE', #130, 4.000000000000000000 ) ;
#190 = DIRECTION ( 'NONE',  ( -0.000000000000000000, -0.000000000000000000, -1.000000000000000000 ) ) ;
#191 = DIRECTION ( 'NONE',  ( -1.000000000000000000, 0.000000000000000000, 0.000000000000000000 ) ) ;
#192 = CARTESIAN_POINT ( 'NONE',  ( 4.200000000000000178, 0.000000000000000000, 5.000000000000005329 ) ) ;
#193 = CC_DESIGN_PERSON_AND_ORGANIZATION_ASSIGNMENT ( #184, #12, ( #48 ) ) ;
#194 = CARTESIAN_POINT ( 'NONE',  ( 0.000000000000000000, 0.000000000000000000, 0.000000000000000000 ) ) ;
#195 = CIRCLE ( 'NONE', #274, 0.1999999999999996503 ) ;
#196 = DIRECTION ( 'NONE',  ( -0.000000000000000000, -0.000000000000000000, -1.000000000000000000 ) ) ;
#197 = AXIS2_PLACEMENT_3D ( 'NONE', #194, #241, #170 ) ;
#198 = ORIENTED_EDGE ( 'NONE', *, *, #144, .F. ) ;
#199 = CIRCLE ( 'NONE', #107, 4.200000000000000178 ) ;
#200 = EDGE_LOOP ( 'NONE', ( #269, #15 ) ) ;
#201 = VERTEX_POINT ( 'NONE', #149 ) ;
#202 = LOCAL_TIME ( 14, 34, 22.00000000000000000, #227 ) ;
#203 = ADVANCED_FACE ( 'NONE', ( #75 ), #215, .F. ) ;
#204 = VECTOR ( 'NONE', #146, 1000.000000000000000 ) ;
#205 = PERSON_AND_ORGANIZATION ( #91, #72 ) ;
#206 = CARTESIAN_POINT ( 'NONE',  ( 4.200000000000000178, 0.000000000000000000, 5.200000000000009948 ) ) ;
#207 = DIRECTION ( 'NONE',  ( -0.000000000000000000, -0.000000000000000000, -1.000000000000000000 ) ) ;
#208 = CALENDAR_DATE ( 2022, 7, 7 ) ;
#209 = DIRECTION ( 'NONE',  ( 0.000000000000000000, 0.000000000000000000, 1.000000000000000000 ) ) ;
#210 = PERSON_AND_ORGANIZATION_ROLE ( 'creator' ) ;
#211 = ORIENTED_EDGE ( 'NONE', *, *, #284, .T. ) ;
#212 = CIRCLE ( 'NONE', #60, 7.000000000000000000 ) ;
#213 = DIRECTION ( 'NONE',  ( -1.000000000000000000, 1.224646799147353454E-16, 0.000000000000000000 ) ) ;
#214 = CC_DESIGN_PERSON_AND_ORGANIZATION_ASSIGNMENT ( #205, #116, ( #286 ) ) ;
#215 = PLANE ( 'NONE',  #197 ) ;
#216 = VECTOR ( 'NONE', #207, 1000.000000000000000 ) ;
#217 = FACE_OUTER_BOUND ( 'NONE', #143, .T. ) ;
#218 = EDGE_CURVE ( 'NONE', #302, #137, #11, .T. ) ;
#219 = DIRECTION ( 'NONE',  ( -1.000000000000000000, 0.000000000000000000, 0.000000000000000000 ) ) ;
#220 = CARTESIAN_POINT ( 'NONE',  ( -4.000000000000000000, 0.000000000000000000, 205.0000000000000284 ) ) ;
#221 = CC_DESIGN_SECURITY_CLASSIFICATION ( #164, ( #286 ) ) ;
#222 = ORIENTED_EDGE ( 'NONE', *, *, #38, .T. ) ;
#223 = APPROVAL_PERSON_ORGANIZATION ( #280, #155, #69 ) ;
#224 = APPROVAL_STATUS ( 'not_yet_approved' ) ;
#225 = VERTEX_POINT ( 'NONE', #124 ) ;
#226 = DIRECTION ( 'NONE',  ( -0.000000000000000000, -0.000000000000000000, -1.000000000000000000 ) ) ;
#227 = COORDINATED_UNIVERSAL_TIME_OFFSET ( 1, 0, .AHEAD. ) ;
#228 = CARTESIAN_POINT ( 'NONE',  ( -4.000000000000000000, 0.000000000000000000, 205.0000000000000284 ) ) ;
#229 = COORDINATED_UNIVERSAL_TIME_OFFSET ( 1, 0, .AHEAD. ) ;
#230 = EDGE_LOOP ( 'NONE', ( #198, #295, #40, #80 ) ) ;
#231 = PERSON_AND_ORGANIZATION ( #91, #72 ) ;
#232 = EDGE_LOOP ( 'NONE', ( #259, #156, #81, #106 ) ) ;
#233 = VECTOR ( 'NONE', #226, 1000.000000000000000 ) ;
#234 = ADVANCED_FACE ( 'NONE', ( #217 ), #288, .T. ) ;
#235 = APPROVAL_STATUS ( 'not_yet_approved' ) ;
#236 = CARTESIAN_POINT ( 'NONE',  ( 0.000000000000000000, 0.000000000000000000, 0.000000000000000000 ) ) ;
#237 = CARTESIAN_POINT ( 'NONE',  ( 0.000000000000000000, 0.000000000000000000, 205.0000000000000284 ) ) ;
#238 = APPLICATION_CONTEXT ( 'configuration controlled 3d designs of mechanical parts and assemblies' ) ;
#239 = EDGE_CURVE ( 'NONE', #225, #185, #175, .T. ) ;
#240 = FACE_OUTER_BOUND ( 'NONE', #200, .T. ) ;
#241 = DIRECTION ( 'NONE',  ( 0.000000000000000000, 0.000000000000000000, 1.000000000000000000 ) ) ;
#242 = FACE_OUTER_BOUND ( 'NONE', #246, .T. ) ;
#243 = CARTESIAN_POINT ( 'NONE',  ( 0.000000000000000000, 0.000000000000000000, 205.0000000000000284 ) ) ;
#244 = CIRCLE ( 'NONE', #186, 4.000000000000000000 ) ;
#245 = ORIENTED_EDGE ( 'NONE', *, *, #96, .F. ) ;
#246 = EDGE_LOOP ( 'NONE', ( #133, #178, #92, #245 ) ) ;
#247 = CC_DESIGN_APPROVAL ( #28, ( #79 ) ) ;
#248 = ADVANCED_FACE ( 'NONE', ( #25 ), #55, .F. ) ;
#249 = AXIS2_PLACEMENT_3D ( 'NONE', #99, #51, #173 ) ;
#250 = ORIENTED_EDGE ( 'NONE', *, *, #239, .T. ) ;
#251 = CALENDAR_DATE ( 2022, 7, 7 ) ;
#252 = DIRECTION ( 'NONE',  ( -0.000000000000000000, -0.000000000000000000, -1.000000000000000000 ) ) ;
#253 = DESIGN_CONTEXT ( 'detailed design', #238, 'design' ) ;
#254 = FACE_BOUND ( 'NONE', #82, .T. ) ;
#255 = MECHANICAL_CONTEXT ( 'NONE', #53, 'mechanical' ) ;
#256 = FACE_OUTER_BOUND ( 'NONE', #110, .T. ) ;
#257 = CARTESIAN_POINT ( 'NONE',  ( 0.000000000000000000, 0.000000000000000000, 5.000000000000000000 ) ) ;
#258 = CALENDAR_DATE ( 2022, 7, 7 ) ;
#259 = ORIENTED_EDGE ( 'NONE', *, *, #267, .F. ) ;
#260 = CIRCLE ( 'NONE', #111, 7.000000000000000000 ) ;
#261 = DIRECTION ( 'NONE',  ( 1.000000000000000000, 0.000000000000000000, 0.000000000000000000 ) ) ;
#262 = EDGE_CURVE ( 'NONE', #179, #305, #102, .T. ) ;
#263 = CARTESIAN_POINT ( 'NONE',  ( 7.000000000000000000, 8.572527594031473190E-16, 5.000000000000000000 ) ) ;
#264 =( LENGTH_UNIT ( ) NAMED_UNIT ( * ) SI_UNIT ( .MILLI., .METRE. ) );
#265 = DIRECTION ( 'NONE',  ( 0.000000000000000000, 0.000000000000000000, 1.000000000000000000 ) ) ;
#266 = CARTESIAN_POINT ( 'NONE',  ( 0.000000000000000000, 0.000000000000000000, 5.000000000000000000 ) ) ;
#267 = EDGE_CURVE ( 'NONE', #225, #201, #78, .T. ) ;
#268 = VECTOR ( 'NONE', #190, 1000.000000000000000 ) ;
#269 = ORIENTED_EDGE ( 'NONE', *, *, #71, .T. ) ;
#270 = PERSON_AND_ORGANIZATION ( #91, #72 ) ;
#271 = DIRECTION ( 'NONE',  ( 0.000000000000000000, 0.000000000000000000, 1.000000000000000000 ) ) ;
#272 = CARTESIAN_POINT ( 'NONE',  ( -4.200000000000000178, 5.143516556418882928E-16, 5.200000000000009948 ) ) ;
#273 = DATE_AND_TIME ( #251, #202 ) ;
#274 = AXIS2_PLACEMENT_3D ( 'NONE', #206, #165, #95 ) ;
#275 = ORIENTED_EDGE ( 'NONE', *, *, #71, .F. ) ;
#276 = CC_DESIGN_DATE_AND_TIME_ASSIGNMENT ( #85, #134, ( #164 ) ) ;
#277 = DATE_AND_TIME ( #39, #300 ) ;
#278 = DIRECTION ( 'NONE',  ( 1.000000000000000000, 0.000000000000000000, 0.000000000000000000 ) ) ;
#279 = LOCAL_TIME ( 14, 34, 22.00000000000000000, #44 ) ;
#280 = PERSON_AND_ORGANIZATION ( #91, #72 ) ;
#281 = CARTESIAN_POINT ( 'NONE',  ( 0.000000000000000000, 0.000000000000000000, 205.0000000000000284 ) ) ;
#282 = DIRECTION ( 'NONE',  ( 0.000000000000000000, 0.000000000000000000, 1.000000000000000000 ) ) ;
#283 = CIRCLE ( 'NONE', #249, 4.000000000000000000 ) ;
#284 = EDGE_CURVE ( 'NONE', #137, #302, #199, .T. ) ;
#285 = DIRECTION ( 'NONE',  ( 1.000000000000000000, 0.000000000000000000, 0.000000000000000000 ) ) ;
#286 = PRODUCT_DEFINITION_FORMATION_WITH_SPECIFIED_SOURCE ( 'LIBOVOLNÝ', '', #48, .NOT_KNOWN. ) ;
#287 = DIRECTION ( 'NONE',  ( 0.000000000000000000, 0.000000000000000000, 1.000000000000000000 ) ) ;
#288 = PLANE ( 'NONE',  #171 ) ;
#289 = AXIS2_PLACEMENT_3D ( 'NONE', #6, #2, #219 ) ;
#290 = ADVANCED_FACE ( 'NONE', ( #242 ), #29, .T. ) ;
#291 = CARTESIAN_POINT ( 'NONE',  ( 0.000000000000000000, 0.000000000000000000, 5.200000000000009948 ) ) ;
#292 = ORIENTED_EDGE ( 'NONE', *, *, #8, .T. ) ;
#293 = CC_DESIGN_PERSON_AND_ORGANIZATION_ASSIGNMENT ( #138, #41, ( #286 ) ) ;
#294 = CIRCLE ( 'NONE', #153, 0.1999999999999996503 ) ;
#295 = ORIENTED_EDGE ( 'NONE', *, *, #46, .T. ) ;
#296 = ORIENTED_EDGE ( 'NONE', *, *, #126, .F. ) ;
#297 = AXIS2_PLACEMENT_3D ( 'NONE', #291, #287, #47 ) ;
#298 = SECURITY_CLASSIFICATION_LEVEL ( 'unclassified' ) ;
#299 = DIRECTION ( 'NONE',  ( 0.000000000000000000, 0.000000000000000000, 1.000000000000000000 ) ) ;
#300 = LOCAL_TIME ( 14, 34, 22.00000000000000000, #229 ) ;
#301 = APPROVAL_DATE_TIME ( #9, #155 ) ;
#302 = VERTEX_POINT ( 'NONE', #192 ) ;
#303 = EDGE_CURVE ( 'NONE', #201, #129, #147, .T. ) ;
#304 = PERSON_AND_ORGANIZATION ( #91, #72 ) ;
#305 = VERTEX_POINT ( 'NONE', #145 ) ;
#306 = CARTESIAN_POINT ( 'NONE',  ( 0.000000000000000000, 0.000000000000000000, 0.000000000000000000 ) ) ;
#307 = DIRECTION ( 'NONE',  ( 0.000000000000000000, 0.000000000000000000, 1.000000000000000000 ) ) ;
ENDSEC;
END-ISO-10303-21;
