ISO-10303-21;
HEADER;
FILE_DESCRIPTION (( 'STEP AP203' ),
    '1' );
FILE_NAME ('495c.STEP',
    '2023-02-12T12:22:41',
    ( '' ),
    ( '' ),
    'SwSTEP 2.0',
    'SolidWorks 2019',
    '' );
FILE_SCHEMA (( 'CONFIG_CONTROL_DESIGN' ));
ENDSEC;

DATA;
#1 = PERSON_AND_ORGANIZATION_ROLE ( 'creator' ) ;
#2 = CC_DESIGN_DATE_AND_TIME_ASSIGNMENT ( #15, #221, ( #101 ) ) ;
#3 = APPROVAL_STATUS ( 'not_yet_approved' ) ;
#4 = ORIENTED_EDGE ( 'NONE', *, *, #166, .T. ) ;
#5 = AXIS2_PLACEMENT_3D ( 'NONE', #222, #108, #31 ) ;
#6 = EDGE_CURVE ( 'NONE', #162, #192, #218, .T. ) ;
#7 = APPROVAL ( #3, 'NEURÈENÝ' ) ;
#8 = DIRECTION ( 'NONE',  ( 0.000000000000000000, 0.000000000000000000, 1.000000000000000000 ) ) ;
#9 = DIRECTION ( 'NONE',  ( 0.000000000000000000, 0.000000000000000000, 1.000000000000000000 ) ) ;
#10 = APPROVAL_PERSON_ORGANIZATION ( #179, #7, #81 ) ;
#11 = LINE ( 'NONE', #32, #64 ) ;
#12 =( NAMED_UNIT ( * ) SI_UNIT ( $, .STERADIAN. ) SOLID_ANGLE_UNIT ( ) );
#13 = DIRECTION ( 'NONE',  ( 1.000000000000000000, 0.000000000000000000, -0.000000000000000000 ) ) ;
#14 = FACE_OUTER_BOUND ( 'NONE', #178, .T. ) ;
#15 = DATE_AND_TIME ( #186, #26 ) ;
#16 = ORIENTED_EDGE ( 'NONE', *, *, #210, .T. ) ;
#17 = ORIENTED_EDGE ( 'NONE', *, *, #250, .T. ) ;
#18 = PERSON ( 'NEURÈENÝ', 'NEURÈENÝ', 'NEURÈENÝ', ('NEURÈENÝ'), ('NEURÈENÝ'), ('NEURÈENÝ') ) ;
#19 = DESIGN_CONTEXT ( 'detailed design', #184, 'design' ) ;
#20 = VERTEX_POINT ( 'NONE', #63 ) ;
#21 = PRODUCT_RELATED_PRODUCT_CATEGORY ( 'detail', '', ( #142 ) ) ;
#22 = PERSON_AND_ORGANIZATION ( #18, #227 ) ;
#23 = ORIENTED_EDGE ( 'NONE', *, *, #133, .T. ) ;
#24 = DIRECTION ( 'NONE',  ( 1.000000000000000000, 0.000000000000000000, 0.000000000000000000 ) ) ;
#25 = CC_DESIGN_PERSON_AND_ORGANIZATION_ASSIGNMENT ( #34, #109, ( #84 ) ) ;
#26 = LOCAL_TIME ( 13, 22, 41.00000000000000000, #153 ) ;
#27 = CYLINDRICAL_SURFACE ( 'NONE', #177, 2.000000000000000000 ) ;
#28 = FACE_BOUND ( 'NONE', #59, .T. ) ;
#29 =( LENGTH_UNIT ( ) NAMED_UNIT ( * ) SI_UNIT ( .MILLI., .METRE. ) );
#30 = CIRCLE ( 'NONE', #211, 1.100000000000000089 ) ;
#31 = DIRECTION ( 'NONE',  ( 1.000000000000000000, 0.000000000000000000, -0.000000000000000000 ) ) ;
#32 = CARTESIAN_POINT ( 'NONE',  ( 1.100000000000000089, 1.347111479062088503E-16, 100.0000000000000000 ) ) ;
#33 = APPROVAL ( #119, 'NEURÈENÝ' ) ;
#34 = PERSON_AND_ORGANIZATION ( #18, #227 ) ;
#35 = CARTESIAN_POINT ( 'NONE',  ( 1.100000000000000089, 1.347111479062088503E-16, 100.0000000000000000 ) ) ;
#36 = ORIENTED_EDGE ( 'NONE', *, *, #160, .T. ) ;
#37 = VECTOR ( 'NONE', #69, 1000.000000000000000 ) ;
#38 = ORIENTED_EDGE ( 'NONE', *, *, #103, .F. ) ;
#39 = ORIENTED_EDGE ( 'NONE', *, *, #91, .T. ) ;
#40 = AXIS2_PLACEMENT_3D ( 'NONE', #180, #42, #182 ) ;
#41 = ADVANCED_FACE ( 'NONE', ( #86 ), #168, .T. ) ;
#42 = DIRECTION ( 'NONE',  ( 0.000000000000000000, 0.000000000000000000, 1.000000000000000000 ) ) ;
#43 = CARTESIAN_POINT ( 'NONE',  ( 0.000000000000000000, 0.000000000000000000, 2.000000000000000000 ) ) ;
#44 = LOCAL_TIME ( 13, 22, 41.00000000000000000, #223 ) ;
#45 = DIRECTION ( 'NONE',  ( -0.000000000000000000, -0.000000000000000000, -1.000000000000000000 ) ) ;
#46 = CARTESIAN_POINT ( 'NONE',  ( 0.000000000000000000, 0.000000000000000000, 2.000000000000000000 ) ) ;
#47 = PERSON_AND_ORGANIZATION ( #18, #227 ) ;
#48 = PRODUCT_DEFINITION ( 'NEZNÁMÝ', '', #84, #19 ) ;
#49 = CARTESIAN_POINT ( 'NONE',  ( 0.000000000000000000, 0.000000000000000000, 2.000000000000000000 ) ) ;
#50 = CC_DESIGN_APPROVAL ( #33, ( #84 ) ) ;
#51 = APPROVAL_STATUS ( 'not_yet_approved' ) ;
#52 = APPROVAL ( #51, 'NEURÈENÝ' ) ;
#53 = CALENDAR_DATE ( 2023, 12, 2 ) ;
#54 = ADVANCED_BREP_SHAPE_REPRESENTATION ( '495c', ( #85, #65 ), #199 ) ;
#55 = AXIS2_PLACEMENT_3D ( 'NONE', #237, #66, #213 ) ;
#56 = CARTESIAN_POINT ( 'NONE',  ( 2.000000000000000000, 2.449293598294706414E-16, 2.000000000000000000 ) ) ;
#57 = ORIENTED_EDGE ( 'NONE', *, *, #6, .F. ) ;
#58 = DATE_AND_TIME ( #229, #183 ) ;
#59 = EDGE_LOOP ( 'NONE', ( #57, #193 ) ) ;
#60 = AXIS2_PLACEMENT_3D ( 'NONE', #233, #62, #24 ) ;
#61 = EDGE_CURVE ( 'NONE', #192, #162, #181, .T. ) ;
#62 = DIRECTION ( 'NONE',  ( 0.000000000000000000, 0.000000000000000000, 1.000000000000000000 ) ) ;
#63 = CARTESIAN_POINT ( 'NONE',  ( 2.000000000000000000, 2.449293598294706414E-16, 2.000000000000000000 ) ) ;
#64 = VECTOR ( 'NONE', #170, 1000.000000000000000 ) ;
#65 = AXIS2_PLACEMENT_3D ( 'NONE', #140, #107, #161 ) ;
#66 = DIRECTION ( 'NONE',  ( -0.000000000000000000, -0.000000000000000000, -1.000000000000000000 ) ) ;
#67 = CYLINDRICAL_SURFACE ( 'NONE', #136, 1.100000000000000089 ) ;
#68 = CC_DESIGN_PERSON_AND_ORGANIZATION_ASSIGNMENT ( #97, #1, ( #84 ) ) ;
#69 = DIRECTION ( 'NONE',  ( -0.000000000000000000, -0.000000000000000000, -1.000000000000000000 ) ) ;
#70 = SHAPE_DEFINITION_REPRESENTATION ( #83, #54 ) ;
#71 = CARTESIAN_POINT ( 'NONE',  ( 0.000000000000000000, 0.000000000000000000, 2.000000000000000000 ) ) ;
#72 = CC_DESIGN_PERSON_AND_ORGANIZATION_ASSIGNMENT ( #22, #176, ( #142 ) ) ;
#73 = PLANE ( 'NONE',  #5 ) ;
#74 = APPROVAL_DATE_TIME ( #158, #52 ) ;
#75 = CARTESIAN_POINT ( 'NONE',  ( -2.000000000000000000, 0.000000000000000000, 0.000000000000000000 ) ) ;
#76 = PERSON_AND_ORGANIZATION ( #18, #227 ) ;
#77 = CALENDAR_DATE ( 2023, 12, 2 ) ;
#78 = CLOSED_SHELL ( 'NONE', ( #41, #88, #147, #171, #225, #191, #100 ) ) ;
#79 = ORIENTED_EDGE ( 'NONE', *, *, #216, .F. ) ;
#80 = APPLICATION_PROTOCOL_DEFINITION ( 'international standard', 'config_control_design', 1994, #174 ) ;
#81 = APPROVAL_ROLE ( '' ) ;
#82 = EDGE_LOOP ( 'NONE', ( #112, #36 ) ) ;
#83 = PRODUCT_DEFINITION_SHAPE ( 'NONE', 'NONE',  #48 ) ;
#84 = PRODUCT_DEFINITION_FORMATION_WITH_SPECIFIED_SOURCE ( 'LIBOVOLNÝ', '', #142, .NOT_KNOWN. ) ;
#85 = MANIFOLD_SOLID_BREP ( 'Pøidat vysunutím3', #78 ) ;
#86 = FACE_OUTER_BOUND ( 'NONE', #198, .T. ) ;
#87 = LINE ( 'NONE', #202, #37 ) ;
#88 = ADVANCED_FACE ( 'NONE', ( #204 ), #27, .T. ) ;
#89 = DIRECTION ( 'NONE',  ( -1.000000000000000000, 0.000000000000000000, 0.000000000000000000 ) ) ;
#90 = CARTESIAN_POINT ( 'NONE',  ( 1.100000000000000089, 1.347111479062088503E-16, 2.000000000000000000 ) ) ;
#91 = EDGE_CURVE ( 'NONE', #141, #192, #11, .T. ) ;
#92 = DIRECTION ( 'NONE',  ( 0.000000000000000000, 0.000000000000000000, 1.000000000000000000 ) ) ;
#93 = CYLINDRICAL_SURFACE ( 'NONE', #134, 2.000000000000000000 ) ;
#94 = CARTESIAN_POINT ( 'NONE',  ( 0.000000000000000000, 0.000000000000000000, 100.0000000000000000 ) ) ;
#95 = ORIENTED_EDGE ( 'NONE', *, *, #103, .T. ) ;
#96 = LOCAL_TIME ( 13, 22, 41.00000000000000000, #253 ) ;
#97 = PERSON_AND_ORGANIZATION ( #18, #227 ) ;
#98 = EDGE_LOOP ( 'NONE', ( #79, #165, #196, #4 ) ) ;
#99 = UNCERTAINTY_MEASURE_WITH_UNIT (LENGTH_MEASURE( 1.000000000000000082E-05 ), #29, 'distance_accuracy_value', 'NONE');
#100 = ADVANCED_FACE ( 'NONE', ( #148 ), #151, .T. ) ;
#101 = SECURITY_CLASSIFICATION ( '', '', #127 ) ;
#102 = DIRECTION ( 'NONE',  ( -1.000000000000000000, 0.000000000000000000, 0.000000000000000000 ) ) ;
#103 = EDGE_CURVE ( 'NONE', #209, #164, #226, .T. ) ;
#104 = DIRECTION ( 'NONE',  ( -0.000000000000000000, -0.000000000000000000, -1.000000000000000000 ) ) ;
#105 = DIRECTION ( 'NONE',  ( -0.000000000000000000, -0.000000000000000000, -1.000000000000000000 ) ) ;
#106 = CARTESIAN_POINT ( 'NONE',  ( 0.000000000000000000, 0.000000000000000000, 100.0000000000000000 ) ) ;
#107 = DIRECTION ( 'NONE',  ( 0.000000000000000000, 0.000000000000000000, 1.000000000000000000 ) ) ;
#108 = DIRECTION ( 'NONE',  ( 0.000000000000000000, 0.000000000000000000, 1.000000000000000000 ) ) ;
#109 = PERSON_AND_ORGANIZATION_ROLE ( 'design_supplier' ) ;
#110 = AXIS2_PLACEMENT_3D ( 'NONE', #129, #92, #154 ) ;
#111 = ORIENTED_EDGE ( 'NONE', *, *, #166, .F. ) ;
#112 = ORIENTED_EDGE ( 'NONE', *, *, #197, .T. ) ;
#113 = EDGE_CURVE ( 'NONE', #117, #164, #220, .T. ) ;
#114 = ORIENTED_EDGE ( 'NONE', *, *, #91, .F. ) ;
#115 = MECHANICAL_CONTEXT ( 'NONE', #174, 'mechanical' ) ;
#116 = CIRCLE ( 'NONE', #110, 2.000000000000000000 ) ;
#117 = VERTEX_POINT ( 'NONE', #244 ) ;
#118 = ORIENTED_EDGE ( 'NONE', *, *, #113, .F. ) ;
#119 = APPROVAL_STATUS ( 'not_yet_approved' ) ;
#120 = AXIS2_PLACEMENT_3D ( 'NONE', #46, #128, #206 ) ;
#121 = DIRECTION ( 'NONE',  ( 0.000000000000000000, 0.000000000000000000, 1.000000000000000000 ) ) ;
#122 = CC_DESIGN_DATE_AND_TIME_ASSIGNMENT ( #167, #145, ( #48 ) ) ;
#123 = AXIS2_PLACEMENT_3D ( 'NONE', #106, #190, #13 ) ;
#124 = APPROVAL_PERSON_ORGANIZATION ( #47, #52, #224 ) ;
#125 = CARTESIAN_POINT ( 'NONE',  ( 0.000000000000000000, 0.000000000000000000, 0.000000000000000000 ) ) ;
#126 =( NAMED_UNIT ( * ) PLANE_ANGLE_UNIT ( ) SI_UNIT ( $, .RADIAN. ) );
#127 = SECURITY_CLASSIFICATION_LEVEL ( 'unclassified' ) ;
#128 = DIRECTION ( 'NONE',  ( 0.000000000000000000, 0.000000000000000000, 1.000000000000000000 ) ) ;
#129 = CARTESIAN_POINT ( 'NONE',  ( 0.000000000000000000, 0.000000000000000000, 2.000000000000000000 ) ) ;
#130 = CC_DESIGN_APPROVAL ( #52, ( #101 ) ) ;
#131 = DIRECTION ( 'NONE',  ( 1.000000000000000000, 0.000000000000000000, 0.000000000000000000 ) ) ;
#132 = DIRECTION ( 'NONE',  ( -0.000000000000000000, -0.000000000000000000, -1.000000000000000000 ) ) ;
#133 = EDGE_CURVE ( 'NONE', #117, #20, #207, .T. ) ;
#134 = AXIS2_PLACEMENT_3D ( 'NONE', #49, #45, #102 ) ;
#135 = ORIENTED_EDGE ( 'NONE', *, *, #160, .F. ) ;
#136 = AXIS2_PLACEMENT_3D ( 'NONE', #185, #105, #152 ) ;
#137 = CC_DESIGN_SECURITY_CLASSIFICATION ( #101, ( #84 ) ) ;
#138 = EDGE_LOOP ( 'NONE', ( #23, #16 ) ) ;
#139 = APPROVAL_DATE_TIME ( #58, #33 ) ;
#140 = CARTESIAN_POINT ( 'NONE',  ( 0.000000000000000000, 0.000000000000000000, 0.000000000000000000 ) ) ;
#141 = VERTEX_POINT ( 'NONE', #35 ) ;
#142 = PRODUCT ( '495c', '495c', '', ( #115 ) ) ;
#143 = FACE_OUTER_BOUND ( 'NONE', #208, .T. ) ;
#144 = LOCAL_TIME ( 13, 22, 41.00000000000000000, #249 ) ;
#145 = DATE_TIME_ROLE ( 'creation_date' ) ;
#146 = PLANE ( 'NONE',  #40 ) ;
#147 = ADVANCED_FACE ( 'NONE', ( #201 ), #93, .T. ) ;
#148 = FACE_OUTER_BOUND ( 'NONE', #82, .T. ) ;
#149 = VECTOR ( 'NONE', #251, 1000.000000000000000 ) ;
#150 = CARTESIAN_POINT ( 'NONE',  ( -1.100000000000000089, 0.000000000000000000, 100.0000000000000000 ) ) ;
#151 = PLANE ( 'NONE',  #123 ) ;
#152 = DIRECTION ( 'NONE',  ( -1.000000000000000000, 0.000000000000000000, 0.000000000000000000 ) ) ;
#153 = COORDINATED_UNIVERSAL_TIME_OFFSET ( 1, 0, .AHEAD. ) ;
#154 = DIRECTION ( 'NONE',  ( 1.000000000000000000, 0.000000000000000000, 0.000000000000000000 ) ) ;
#155 = PERSON_AND_ORGANIZATION_ROLE ( 'classification_officer' ) ;
#156 = CARTESIAN_POINT ( 'NONE',  ( 0.000000000000000000, 0.000000000000000000, 0.000000000000000000 ) ) ;
#157 = PERSON_AND_ORGANIZATION_ROLE ( 'creator' ) ;
#158 = DATE_AND_TIME ( #77, #144 ) ;
#159 = ORIENTED_EDGE ( 'NONE', *, *, #61, .T. ) ;
#160 = EDGE_CURVE ( 'NONE', #141, #255, #240, .T. ) ;
#161 = DIRECTION ( 'NONE',  ( 1.000000000000000000, 0.000000000000000000, 0.000000000000000000 ) ) ;
#162 = VERTEX_POINT ( 'NONE', #239 ) ;
#163 = CALENDAR_DATE ( 2023, 12, 2 ) ;
#164 = VERTEX_POINT ( 'NONE', #75 ) ;
#165 = ORIENTED_EDGE ( 'NONE', *, *, #133, .F. ) ;
#166 = EDGE_CURVE ( 'NONE', #164, #209, #242, .T. ) ;
#167 = DATE_AND_TIME ( #53, #44 ) ;
#168 = CYLINDRICAL_SURFACE ( 'NONE', #55, 1.100000000000000089 ) ;
#169 = AXIS2_PLACEMENT_3D ( 'NONE', #94, #203, #245 ) ;
#170 = DIRECTION ( 'NONE',  ( -0.000000000000000000, -0.000000000000000000, -1.000000000000000000 ) ) ;
#171 = ADVANCED_FACE ( 'NONE', ( #28, #187 ), #73, .T. ) ;
#172 = DIRECTION ( 'NONE',  ( 1.000000000000000000, 0.000000000000000000, 0.000000000000000000 ) ) ;
#173 = CC_DESIGN_PERSON_AND_ORGANIZATION_ASSIGNMENT ( #76, #157, ( #48 ) ) ;
#174 = APPLICATION_CONTEXT ( 'configuration controlled 3d designs of mechanical parts and assemblies' ) ;
#175 = ORIENTED_EDGE ( 'NONE', *, *, #216, .T. ) ;
#176 = PERSON_AND_ORGANIZATION_ROLE ( 'design_owner' ) ;
#177 = AXIS2_PLACEMENT_3D ( 'NONE', #71, #104, #89 ) ;
#178 = EDGE_LOOP ( 'NONE', ( #114, #234, #17, #194 ) ) ;
#179 = PERSON_AND_ORGANIZATION ( #18, #227 ) ;
#180 = CARTESIAN_POINT ( 'NONE',  ( 0.000000000000000000, 0.000000000000000000, 0.000000000000000000 ) ) ;
#181 = CIRCLE ( 'NONE', #232, 1.100000000000000089 ) ;
#182 = DIRECTION ( 'NONE',  ( 1.000000000000000000, 0.000000000000000000, -0.000000000000000000 ) ) ;
#183 = LOCAL_TIME ( 13, 22, 41.00000000000000000, #195 ) ;
#184 = APPLICATION_CONTEXT ( 'configuration controlled 3d designs of mechanical parts and assemblies' ) ;
#185 = CARTESIAN_POINT ( 'NONE',  ( 0.000000000000000000, 0.000000000000000000, 100.0000000000000000 ) ) ;
#186 = CALENDAR_DATE ( 2023, 12, 2 ) ;
#187 = FACE_OUTER_BOUND ( 'NONE', #138, .T. ) ;
#188 = CARTESIAN_POINT ( 'NONE',  ( -2.000000000000000000, 0.000000000000000000, 2.000000000000000000 ) ) ;
#189 = AXIS2_PLACEMENT_3D ( 'NONE', #125, #215, #172 ) ;
#190 = DIRECTION ( 'NONE',  ( 0.000000000000000000, 0.000000000000000000, 1.000000000000000000 ) ) ;
#191 = ADVANCED_FACE ( 'NONE', ( #14 ), #67, .T. ) ;
#192 = VERTEX_POINT ( 'NONE', #90 ) ;
#193 = ORIENTED_EDGE ( 'NONE', *, *, #61, .F. ) ;
#194 = ORIENTED_EDGE ( 'NONE', *, *, #6, .T. ) ;
#195 = COORDINATED_UNIVERSAL_TIME_OFFSET ( 1, 0, .AHEAD. ) ;
#196 = ORIENTED_EDGE ( 'NONE', *, *, #113, .T. ) ;
#197 = EDGE_CURVE ( 'NONE', #255, #141, #30, .T. ) ;
#198 = EDGE_LOOP ( 'NONE', ( #135, #39, #159, #228 ) ) ;
#199 =( GEOMETRIC_REPRESENTATION_CONTEXT ( 3 ) GLOBAL_UNCERTAINTY_ASSIGNED_CONTEXT ( ( #99 ) ) GLOBAL_UNIT_ASSIGNED_CONTEXT ( ( #29, #126, #12 ) ) REPRESENTATION_CONTEXT ( 'NONE', 'WORKASPACE' ) );
#200 = DIRECTION ( 'NONE',  ( 1.000000000000000000, 0.000000000000000000, 0.000000000000000000 ) ) ;
#201 = FACE_OUTER_BOUND ( 'NONE', #98, .T. ) ;
#202 = CARTESIAN_POINT ( 'NONE',  ( -1.100000000000000089, 0.000000000000000000, 100.0000000000000000 ) ) ;
#203 = DIRECTION ( 'NONE',  ( 0.000000000000000000, 0.000000000000000000, 1.000000000000000000 ) ) ;
#204 = FACE_OUTER_BOUND ( 'NONE', #252, .T. ) ;
#205 = DATE_AND_TIME ( #163, #96 ) ;
#206 = DIRECTION ( 'NONE',  ( 1.000000000000000000, 0.000000000000000000, 0.000000000000000000 ) ) ;
#207 = CIRCLE ( 'NONE', #120, 2.000000000000000000 ) ;
#208 = EDGE_LOOP ( 'NONE', ( #111, #38 ) ) ;
#209 = VERTEX_POINT ( 'NONE', #241 ) ;
#210 = EDGE_CURVE ( 'NONE', #20, #117, #116, .T. ) ;
#211 = AXIS2_PLACEMENT_3D ( 'NONE', #243, #8, #217 ) ;
#212 = APPROVAL_ROLE ( '' ) ;
#213 = DIRECTION ( 'NONE',  ( -1.000000000000000000, 0.000000000000000000, 0.000000000000000000 ) ) ;
#214 = VECTOR ( 'NONE', #132, 1000.000000000000000 ) ;
#215 = DIRECTION ( 'NONE',  ( 0.000000000000000000, 0.000000000000000000, 1.000000000000000000 ) ) ;
#216 = EDGE_CURVE ( 'NONE', #20, #209, #254, .T. ) ;
#217 = DIRECTION ( 'NONE',  ( 1.000000000000000000, 0.000000000000000000, 0.000000000000000000 ) ) ;
#218 = CIRCLE ( 'NONE', #60, 1.100000000000000089 ) ;
#219 = PERSON_AND_ORGANIZATION ( #18, #227 ) ;
#220 = LINE ( 'NONE', #188, #214 ) ;
#221 = DATE_TIME_ROLE ( 'classification_date' ) ;
#222 = CARTESIAN_POINT ( 'NONE',  ( 0.000000000000000000, 0.000000000000000000, 2.000000000000000000 ) ) ;
#223 = COORDINATED_UNIVERSAL_TIME_OFFSET ( 1, 0, .AHEAD. ) ;
#224 = APPROVAL_ROLE ( '' ) ;
#225 = ADVANCED_FACE ( 'NONE', ( #143 ), #146, .F. ) ;
#226 = CIRCLE ( 'NONE', #189, 2.000000000000000000 ) ;
#227 = ORGANIZATION ( 'NEURÈENÝ', 'NEURÈENÝ', '' ) ;
#228 = ORIENTED_EDGE ( 'NONE', *, *, #250, .F. ) ;
#229 = CALENDAR_DATE ( 2023, 12, 2 ) ;
#230 = ORIENTED_EDGE ( 'NONE', *, *, #210, .F. ) ;
#231 = APPLICATION_PROTOCOL_DEFINITION ( 'international standard', 'config_control_design', 1994, #184 ) ;
#232 = AXIS2_PLACEMENT_3D ( 'NONE', #43, #121, #131 ) ;
#233 = CARTESIAN_POINT ( 'NONE',  ( 0.000000000000000000, 0.000000000000000000, 2.000000000000000000 ) ) ;
#234 = ORIENTED_EDGE ( 'NONE', *, *, #197, .F. ) ;
#235 = PERSON_AND_ORGANIZATION ( #18, #227 ) ;
#236 = CC_DESIGN_APPROVAL ( #7, ( #48 ) ) ;
#237 = CARTESIAN_POINT ( 'NONE',  ( 0.000000000000000000, 0.000000000000000000, 100.0000000000000000 ) ) ;
#238 = CC_DESIGN_PERSON_AND_ORGANIZATION_ASSIGNMENT ( #219, #155, ( #101 ) ) ;
#239 = CARTESIAN_POINT ( 'NONE',  ( -1.100000000000000089, 0.000000000000000000, 2.000000000000000000 ) ) ;
#240 = CIRCLE ( 'NONE', #169, 1.100000000000000089 ) ;
#241 = CARTESIAN_POINT ( 'NONE',  ( 2.000000000000000000, 2.449293598294706414E-16, 0.000000000000000000 ) ) ;
#242 = CIRCLE ( 'NONE', #246, 2.000000000000000000 ) ;
#243 = CARTESIAN_POINT ( 'NONE',  ( 0.000000000000000000, 0.000000000000000000, 100.0000000000000000 ) ) ;
#244 = CARTESIAN_POINT ( 'NONE',  ( -2.000000000000000000, 0.000000000000000000, 2.000000000000000000 ) ) ;
#245 = DIRECTION ( 'NONE',  ( 1.000000000000000000, 0.000000000000000000, 0.000000000000000000 ) ) ;
#246 = AXIS2_PLACEMENT_3D ( 'NONE', #156, #9, #200 ) ;
#247 = APPROVAL_PERSON_ORGANIZATION ( #235, #33, #212 ) ;
#248 = APPROVAL_DATE_TIME ( #205, #7 ) ;
#249 = COORDINATED_UNIVERSAL_TIME_OFFSET ( 1, 0, .AHEAD. ) ;
#250 = EDGE_CURVE ( 'NONE', #255, #162, #87, .T. ) ;
#251 = DIRECTION ( 'NONE',  ( -0.000000000000000000, -0.000000000000000000, -1.000000000000000000 ) ) ;
#252 = EDGE_LOOP ( 'NONE', ( #230, #175, #95, #118 ) ) ;
#253 = COORDINATED_UNIVERSAL_TIME_OFFSET ( 1, 0, .AHEAD. ) ;
#254 = LINE ( 'NONE', #56, #149 ) ;
#255 = VERTEX_POINT ( 'NONE', #150 ) ;
ENDSEC;
END-ISO-10303-21;
