ISO-10303-21;
HEADER;
FILE_DESCRIPTION (( 'STEP AP203' ),
    '1' );
FILE_NAME ('bce6.STEP',
    '2022-07-07T12:33:12',
    ( '' ),
    ( '' ),
    'SwSTEP 2.0',
    'SolidWorks 2019',
    '' );
FILE_SCHEMA (( 'CONFIG_CONTROL_DESIGN' ));
ENDSEC;

DATA;
#1 = CARTESIAN_POINT ( 'NONE',  ( 4.299999999999998934, 0.000000000000000000, 5.000000000000005329 ) ) ;
#2 = CARTESIAN_POINT ( 'NONE',  ( 0.000000000000000000, 0.000000000000000000, 5.000000000000000000 ) ) ;
#3 = CARTESIAN_POINT ( 'NONE',  ( 0.000000000000000000, 0.000000000000000000, 5.200000000000009948 ) ) ;
#4 = CC_DESIGN_PERSON_AND_ORGANIZATION_ASSIGNMENT ( #303, #214, ( #142 ) ) ;
#5 = APPROVAL_PERSON_ORGANIZATION ( #28, #106, #212 ) ;
#6 = DIRECTION ( 'NONE',  ( -1.000000000000000000, 0.000000000000000000, 0.000000000000000000 ) ) ;
#7 = CARTESIAN_POINT ( 'NONE',  ( 0.000000000000000000, 0.000000000000000000, 165.0000000000000000 ) ) ;
#8 = AXIS2_PLACEMENT_3D ( 'NONE', #187, #122, #299 ) ;
#9 = APPROVAL_PERSON_ORGANIZATION ( #257, #225, #239 ) ;
#10 = ORIENTED_EDGE ( 'NONE', *, *, #195, .F. ) ;
#11 = APPLICATION_CONTEXT ( 'configuration controlled 3d designs of mechanical parts and assemblies' ) ;
#12 = EDGE_LOOP ( 'NONE', ( #14, #18, #98, #255 ) ) ;
#13 = CIRCLE ( 'NONE', #64, 7.000000000000000000 ) ;
#14 = ORIENTED_EDGE ( 'NONE', *, *, #235, .F. ) ;
#15 = CC_DESIGN_PERSON_AND_ORGANIZATION_ASSIGNMENT ( #139, #254, ( #155 ) ) ;
#16 = AXIS2_PLACEMENT_3D ( 'NONE', #58, #130, #242 ) ;
#17 = CC_DESIGN_APPROVAL ( #225, ( #260 ) ) ;
#18 = ORIENTED_EDGE ( 'NONE', *, *, #159, .F. ) ;
#19 = DATE_TIME_ROLE ( 'creation_date' ) ;
#20 = ORIENTED_EDGE ( 'NONE', *, *, #85, .T. ) ;
#21 = COORDINATED_UNIVERSAL_TIME_OFFSET ( 1, 0, .AHEAD. ) ;
#22 = DIRECTION ( 'NONE',  ( 1.000000000000000000, 0.000000000000000000, 0.000000000000000000 ) ) ;
#23 = APPROVAL_ROLE ( '' ) ;
#24 = ORIENTED_EDGE ( 'NONE', *, *, #221, .F. ) ;
#25 = APPROVAL_DATE_TIME ( #123, #106 ) ;
#26 = ORIENTED_EDGE ( 'NONE', *, *, #81, .F. ) ;
#27 = AXIS2_PLACEMENT_3D ( 'NONE', #237, #95, #234 ) ;
#28 = PERSON_AND_ORGANIZATION ( #110, #149 ) ;
#29 = PLANE ( 'NONE',  #41 ) ;
#30 = APPROVAL_STATUS ( 'not_yet_approved' ) ;
#31 = DIRECTION ( 'NONE',  ( -0.000000000000000000, -0.000000000000000000, -1.000000000000000000 ) ) ;
#32 = DIRECTION ( 'NONE',  ( -0.000000000000000000, -0.000000000000000000, -1.000000000000000000 ) ) ;
#33 = CC_DESIGN_PERSON_AND_ORGANIZATION_ASSIGNMENT ( #74, #134, ( #142 ) ) ;
#34 = CARTESIAN_POINT ( 'NONE',  ( -7.000000000000000000, 0.000000000000000000, 5.000000000000000000 ) ) ;
#35 = LINE ( 'NONE', #266, #226 ) ;
#36 = DIRECTION ( 'NONE',  ( -0.000000000000000000, -0.000000000000000000, -1.000000000000000000 ) ) ;
#37 = EDGE_LOOP ( 'NONE', ( #166, #294 ) ) ;
#38 = ORIENTED_EDGE ( 'NONE', *, *, #148, .T. ) ;
#39 = ORIENTED_EDGE ( 'NONE', *, *, #159, .T. ) ;
#40 = CARTESIAN_POINT ( 'NONE',  ( -4.299999999999998934, 5.265981236333617484E-16, 5.200000000000009948 ) ) ;
#41 = AXIS2_PLACEMENT_3D ( 'NONE', #92, #124, #182 ) ;
#42 = DIRECTION ( 'NONE',  ( 0.000000000000000000, 0.000000000000000000, 1.000000000000000000 ) ) ;
#43 = CALENDAR_DATE ( 2022, 7, 7 ) ;
#44 = CIRCLE ( 'NONE', #62, 7.000000000000000000 ) ;
#45 = ORIENTED_EDGE ( 'NONE', *, *, #307, .T. ) ;
#46 = VERTEX_POINT ( 'NONE', #145 ) ;
#47 = EDGE_CURVE ( 'NONE', #46, #295, #206, .T. ) ;
#48 = CALENDAR_DATE ( 2022, 7, 7 ) ;
#49 = CIRCLE ( 'NONE', #89, 0.1999999999999996503 ) ;
#50 = FACE_OUTER_BOUND ( 'NONE', #84, .T. ) ;
#51 = LINE ( 'NONE', #261, #276 ) ;
#52 = CIRCLE ( 'NONE', #157, 7.000000000000000000 ) ;
#53 = CC_DESIGN_APPROVAL ( #109, ( #264 ) ) ;
#54 = CC_DESIGN_DATE_AND_TIME_ASSIGNMENT ( #72, #298, ( #260 ) ) ;
#55 = CARTESIAN_POINT ( 'NONE',  ( 4.099999999999999645, 5.021051876504147385E-16, 165.0000000000000000 ) ) ;
#56 = CYLINDRICAL_SURFACE ( 'NONE', #188, 7.000000000000000000 ) ;
#57 = LOCAL_TIME ( 14, 33, 12.00000000000000000, #114 ) ;
#58 = CARTESIAN_POINT ( 'NONE',  ( 0.000000000000000000, 0.000000000000000000, 0.000000000000000000 ) ) ;
#59 = ADVANCED_FACE ( 'NONE', ( #100 ), #183, .T. ) ;
#60 = ORIENTED_EDGE ( 'NONE', *, *, #138, .F. ) ;
#61 = EDGE_LOOP ( 'NONE', ( #70, #283 ) ) ;
#62 = AXIS2_PLACEMENT_3D ( 'NONE', #2, #82, #243 ) ;
#63 = EDGE_CURVE ( 'NONE', #229, #267, #292, .T. ) ;
#64 = AXIS2_PLACEMENT_3D ( 'NONE', #160, #119, #22 ) ;
#65 = CIRCLE ( 'NONE', #153, 4.099999999999999645 ) ;
#66 = APPROVAL_STATUS ( 'not_yet_approved' ) ;
#67 = FACE_OUTER_BOUND ( 'NONE', #174, .T. ) ;
#68 = APPLICATION_PROTOCOL_DEFINITION ( 'international standard', 'config_control_design', 1994, #11 ) ;
#69 = DIRECTION ( 'NONE',  ( -0.000000000000000000, -0.000000000000000000, -1.000000000000000000 ) ) ;
#70 = ORIENTED_EDGE ( 'NONE', *, *, #81, .T. ) ;
#71 = CC_DESIGN_PERSON_AND_ORGANIZATION_ASSIGNMENT ( #282, #228, ( #260 ) ) ;
#72 = DATE_AND_TIME ( #121, #158 ) ;
#73 = DIRECTION ( 'NONE',  ( -0.000000000000000000, -0.000000000000000000, -1.000000000000000000 ) ) ;
#74 = PERSON_AND_ORGANIZATION ( #110, #149 ) ;
#75 = LINE ( 'NONE', #215, #201 ) ;
#76 = CARTESIAN_POINT ( 'NONE',  ( 0.000000000000000000, 0.000000000000000000, 165.0000000000000000 ) ) ;
#77 = DIRECTION ( 'NONE',  ( 0.000000000000000000, -1.000000000000000000, 0.000000000000000000 ) ) ;
#78 = LOCAL_TIME ( 14, 33, 12.00000000000000000, #21 ) ;
#79 = CARTESIAN_POINT ( 'NONE',  ( -7.000000000000000000, 0.000000000000000000, 0.000000000000000000 ) ) ;
#80 = DIRECTION ( 'NONE',  ( -0.000000000000000000, -0.000000000000000000, -1.000000000000000000 ) ) ;
#81 = EDGE_CURVE ( 'NONE', #231, #203, #88, .T. ) ;
#82 = DIRECTION ( 'NONE',  ( 0.000000000000000000, 0.000000000000000000, 1.000000000000000000 ) ) ;
#83 = ADVANCED_FACE ( 'NONE', ( #304, #67 ), #29, .T. ) ;
#84 = EDGE_LOOP ( 'NONE', ( #285, #144, #181, #60 ) ) ;
#85 = EDGE_CURVE ( 'NONE', #229, #295, #75, .T. ) ;
#86 = ADVANCED_BREP_SHAPE_REPRESENTATION ( 'bce6', ( #178, #288 ), #227 ) ;
#87 = EDGE_LOOP ( 'NONE', ( #24, #300, #115, #269 ) ) ;
#88 = CIRCLE ( 'NONE', #208, 4.299999999999998934 ) ;
#89 = AXIS2_PLACEMENT_3D ( 'NONE', #40, #207, #116 ) ;
#90 = CARTESIAN_POINT ( 'NONE',  ( 0.000000000000000000, 0.000000000000000000, 0.000000000000000000 ) ) ;
#91 = ADVANCED_FACE ( 'NONE', ( #50 ), #112, .F. ) ;
#92 = CARTESIAN_POINT ( 'NONE',  ( 0.000000000000000000, 0.000000000000000000, 5.000000000000000000 ) ) ;
#93 = CC_DESIGN_APPROVAL ( #106, ( #142 ) ) ;
#94 = CARTESIAN_POINT ( 'NONE',  ( 0.000000000000000000, 0.000000000000000000, 5.200000000000009948 ) ) ;
#95 = DIRECTION ( 'NONE',  ( -0.000000000000000000, -0.000000000000000000, -1.000000000000000000 ) ) ;
#96 = CIRCLE ( 'NONE', #117, 4.299999999999998934 ) ;
#97 = CALENDAR_DATE ( 2022, 7, 7 ) ;
#98 = ORIENTED_EDGE ( 'NONE', *, *, #290, .T. ) ;
#99 = CC_DESIGN_SECURITY_CLASSIFICATION ( #260, ( #142 ) ) ;
#100 = FACE_OUTER_BOUND ( 'NONE', #173, .T. ) ;
#101 = CARTESIAN_POINT ( 'NONE',  ( -4.299999999999998934, 5.265981236333617484E-16, 5.000000000000005329 ) ) ;
#102 = CARTESIAN_POINT ( 'NONE',  ( -4.099999999999999645, 0.000000000000000000, 165.0000000000000000 ) ) ;
#103 = DIRECTION ( 'NONE',  ( 0.000000000000000000, 0.000000000000000000, 1.000000000000000000 ) ) ;
#104 = CIRCLE ( 'NONE', #200, 0.1999999999999996503 ) ;
#105 = PLANE ( 'NONE',  #16 ) ;
#106 = APPROVAL ( #66, 'NEURÈENÝ' ) ;
#107 = CARTESIAN_POINT ( 'NONE',  ( 0.000000000000000000, 0.000000000000000000, 5.200000000000009948 ) ) ;
#108 = AXIS2_PLACEMENT_3D ( 'NONE', #3, #262, #168 ) ;
#109 = APPROVAL ( #143, 'NEURÈENÝ' ) ;
#110 = PERSON ( 'NEURÈENÝ', 'NEURÈENÝ', 'NEURÈENÝ', ('NEURÈENÝ'), ('NEURÈENÝ'), ('NEURÈENÝ') ) ;
#111 = ORIENTED_EDGE ( 'NONE', *, *, #297, .F. ) ;
#112 = TOROIDAL_SURFACE ( 'NONE', #281, 4.299999999999998934, 0.2000000000000000111 ) ;
#113 = VERTEX_POINT ( 'NONE', #147 ) ;
#114 = COORDINATED_UNIVERSAL_TIME_OFFSET ( 1, 0, .AHEAD. ) ;
#115 = ORIENTED_EDGE ( 'NONE', *, *, #120, .T. ) ;
#116 = DIRECTION ( 'NONE',  ( -1.000000000000000000, 1.224646799147353454E-16, 0.000000000000000000 ) ) ;
#117 = AXIS2_PLACEMENT_3D ( 'NONE', #209, #69, #128 ) ;
#118 = APPROVAL_DATE_TIME ( #274, #109 ) ;
#119 = DIRECTION ( 'NONE',  ( 0.000000000000000000, 0.000000000000000000, 1.000000000000000000 ) ) ;
#120 = EDGE_CURVE ( 'NONE', #175, #213, #13, .T. ) ;
#121 = CALENDAR_DATE ( 2022, 7, 7 ) ;
#122 = DIRECTION ( 'NONE',  ( 0.000000000000000000, 0.000000000000000000, 1.000000000000000000 ) ) ;
#123 = DATE_AND_TIME ( #233, #57 ) ;
#124 = DIRECTION ( 'NONE',  ( 0.000000000000000000, 0.000000000000000000, 1.000000000000000000 ) ) ;
#125 = DIRECTION ( 'NONE',  ( -0.000000000000000000, -0.000000000000000000, -1.000000000000000000 ) ) ;
#126 = CARTESIAN_POINT ( 'NONE',  ( -4.099999999999999645, 0.000000000000000000, 5.200000000000009948 ) ) ;
#127 = FACE_OUTER_BOUND ( 'NONE', #37, .T. ) ;
#128 = DIRECTION ( 'NONE',  ( 1.000000000000000000, 0.000000000000000000, 0.000000000000000000 ) ) ;
#129 = ADVANCED_FACE ( 'NONE', ( #277 ), #185, .T. ) ;
#130 = DIRECTION ( 'NONE',  ( 0.000000000000000000, 0.000000000000000000, 1.000000000000000000 ) ) ;
#131 =( NAMED_UNIT ( * ) SI_UNIT ( $, .STERADIAN. ) SOLID_ANGLE_UNIT ( ) );
#132 = EDGE_CURVE ( 'NONE', #295, #203, #49, .T. ) ;
#133 = VECTOR ( 'NONE', #80, 1000.000000000000000 ) ;
#134 = PERSON_AND_ORGANIZATION_ROLE ( 'creator' ) ;
#135 = ORIENTED_EDGE ( 'NONE', *, *, #85, .F. ) ;
#136 = MECHANICAL_CONTEXT ( 'NONE', #202, 'mechanical' ) ;
#137 = DIRECTION ( 'NONE',  ( -0.000000000000000000, -0.000000000000000000, -1.000000000000000000 ) ) ;
#138 = EDGE_CURVE ( 'NONE', #203, #231, #96, .T. ) ;
#139 = PERSON_AND_ORGANIZATION ( #110, #149 ) ;
#140 = ORIENTED_EDGE ( 'NONE', *, *, #63, .T. ) ;
#141 = AXIS2_PLACEMENT_3D ( 'NONE', #287, #152, #289 ) ;
#142 = PRODUCT_DEFINITION_FORMATION_WITH_SPECIFIED_SOURCE ( 'LIBOVOLNÝ', '', #155, .NOT_KNOWN. ) ;
#143 = APPROVAL_STATUS ( 'not_yet_approved' ) ;
#144 = ORIENTED_EDGE ( 'NONE', *, *, #47, .F. ) ;
#145 = CARTESIAN_POINT ( 'NONE',  ( 4.099999999999999645, 5.021051876504147385E-16, 5.200000000000009948 ) ) ;
#146 = COORDINATED_UNIVERSAL_TIME_OFFSET ( 1, 0, .AHEAD. ) ;
#147 = CARTESIAN_POINT ( 'NONE',  ( 7.000000000000000000, 8.572527594031473190E-16, 5.000000000000000000 ) ) ;
#148 = EDGE_CURVE ( 'NONE', #267, #229, #65, .T. ) ;
#149 = ORGANIZATION ( 'NEURÈENÝ', 'NEURÈENÝ', '' ) ;
#150 = FACE_OUTER_BOUND ( 'NONE', #87, .T. ) ;
#151 = EDGE_CURVE ( 'NONE', #213, #175, #52, .T. ) ;
#152 = DIRECTION ( 'NONE',  ( 0.000000000000000000, 0.000000000000000000, 1.000000000000000000 ) ) ;
#153 = AXIS2_PLACEMENT_3D ( 'NONE', #76, #217, #220 ) ;
#154 = CARTESIAN_POINT ( 'NONE',  ( 4.099999999999999645, 5.021051876504147385E-16, 165.0000000000000000 ) ) ;
#155 = PRODUCT ( 'bce6', 'bce6', '', ( #136 ) ) ;
#156 = ORIENTED_EDGE ( 'NONE', *, *, #63, .F. ) ;
#157 = AXIS2_PLACEMENT_3D ( 'NONE', #169, #198, #248 ) ;
#158 = LOCAL_TIME ( 14, 33, 12.00000000000000000, #205 ) ;
#159 = EDGE_CURVE ( 'NONE', #224, #113, #44, .T. ) ;
#160 = CARTESIAN_POINT ( 'NONE',  ( 0.000000000000000000, 0.000000000000000000, 0.000000000000000000 ) ) ;
#161 = PRODUCT_RELATED_PRODUCT_CATEGORY ( 'detail', '', ( #155 ) ) ;
#162 = EDGE_LOOP ( 'NONE', ( #10, #204, #26, #111 ) ) ;
#163 = EDGE_LOOP ( 'NONE', ( #164, #156, #20, #179 ) ) ;
#164 = ORIENTED_EDGE ( 'NONE', *, *, #307, .F. ) ;
#165 = DATE_AND_TIME ( #48, #176 ) ;
#166 = ORIENTED_EDGE ( 'NONE', *, *, #151, .F. ) ;
#167 = DIRECTION ( 'NONE',  ( 1.000000000000000000, 0.000000000000000000, -0.000000000000000000 ) ) ;
#168 = DIRECTION ( 'NONE',  ( 1.000000000000000000, 0.000000000000000000, 0.000000000000000000 ) ) ;
#169 = CARTESIAN_POINT ( 'NONE',  ( 0.000000000000000000, 0.000000000000000000, 0.000000000000000000 ) ) ;
#170 = UNCERTAINTY_MEASURE_WITH_UNIT (LENGTH_MEASURE( 1.000000000000000082E-05 ), #246, 'distance_accuracy_value', 'NONE');
#171 = CARTESIAN_POINT ( 'NONE',  ( 7.000000000000000000, 8.572527594031473190E-16, 0.000000000000000000 ) ) ;
#172 = DIRECTION ( 'NONE',  ( -0.000000000000000000, -0.000000000000000000, -1.000000000000000000 ) ) ;
#173 = EDGE_LOOP ( 'NONE', ( #256, #45, #273, #135 ) ) ;
#174 = EDGE_LOOP ( 'NONE', ( #39, #253 ) ) ;
#175 = VERTEX_POINT ( 'NONE', #171 ) ;
#176 = LOCAL_TIME ( 14, 33, 12.00000000000000000, #146 ) ;
#177 = CC_DESIGN_PERSON_AND_ORGANIZATION_ASSIGNMENT ( #210, #184, ( #264 ) ) ;
#178 = MANIFOLD_SOLID_BREP ( 'Zaoblit1', #302 ) ;
#179 = ORIENTED_EDGE ( 'NONE', *, *, #195, .T. ) ;
#180 = DESIGN_CONTEXT ( 'detailed design', #11, 'design' ) ;
#181 = ORIENTED_EDGE ( 'NONE', *, *, #297, .T. ) ;
#182 = DIRECTION ( 'NONE',  ( 1.000000000000000000, 0.000000000000000000, -0.000000000000000000 ) ) ;
#183 = CYLINDRICAL_SURFACE ( 'NONE', #27, 4.099999999999999645 ) ;
#184 = PERSON_AND_ORGANIZATION_ROLE ( 'creator' ) ;
#185 = CYLINDRICAL_SURFACE ( 'NONE', #238, 7.000000000000000000 ) ;
#186 = DIRECTION ( 'NONE',  ( 0.000000000000000000, 0.000000000000000000, 1.000000000000000000 ) ) ;
#187 = CARTESIAN_POINT ( 'NONE',  ( 0.000000000000000000, 0.000000000000000000, 165.0000000000000000 ) ) ;
#188 = AXIS2_PLACEMENT_3D ( 'NONE', #293, #125, #6 ) ;
#189 = APPROVAL_PERSON_ORGANIZATION ( #230, #109, #23 ) ;
#190 = ADVANCED_FACE ( 'NONE', ( #286 ), #306, .F. ) ;
#191 = DIRECTION ( 'NONE',  ( 0.000000000000000000, 0.000000000000000000, 1.000000000000000000 ) ) ;
#192 = APPROVAL_DATE_TIME ( #165, #225 ) ;
#193 = CARTESIAN_POINT ( 'NONE',  ( 0.000000000000000000, 0.000000000000000000, 165.0000000000000000 ) ) ;
#194 = CARTESIAN_POINT ( 'NONE',  ( 4.299999999999998934, 0.000000000000000000, 5.200000000000009948 ) ) ;
#195 = EDGE_CURVE ( 'NONE', #295, #46, #232, .T. ) ;
#196 = LINE ( 'NONE', #55, #133 ) ;
#197 = FACE_OUTER_BOUND ( 'NONE', #163, .T. ) ;
#198 = DIRECTION ( 'NONE',  ( 0.000000000000000000, 0.000000000000000000, 1.000000000000000000 ) ) ;
#199 = CC_DESIGN_DATE_AND_TIME_ASSIGNMENT ( #284, #19, ( #264 ) ) ;
#200 = AXIS2_PLACEMENT_3D ( 'NONE', #194, #77, #291 ) ;
#201 = VECTOR ( 'NONE', #137, 1000.000000000000000 ) ;
#202 = APPLICATION_CONTEXT ( 'configuration controlled 3d designs of mechanical parts and assemblies' ) ;
#203 = VERTEX_POINT ( 'NONE', #101 ) ;
#204 = ORIENTED_EDGE ( 'NONE', *, *, #132, .T. ) ;
#205 = COORDINATED_UNIVERSAL_TIME_OFFSET ( 1, 0, .AHEAD. ) ;
#206 = CIRCLE ( 'NONE', #244, 4.099999999999999645 ) ;
#207 = DIRECTION ( 'NONE',  ( 1.224646799147353207E-16, 1.000000000000000000, -0.000000000000000000 ) ) ;
#208 = AXIS2_PLACEMENT_3D ( 'NONE', #258, #73, #275 ) ;
#209 = CARTESIAN_POINT ( 'NONE',  ( 0.000000000000000000, 0.000000000000000000, 5.000000000000000000 ) ) ;
#210 = PERSON_AND_ORGANIZATION ( #110, #149 ) ;
#211 = DIRECTION ( 'NONE',  ( 1.000000000000000000, 0.000000000000000000, 0.000000000000000000 ) ) ;
#212 = APPROVAL_ROLE ( '' ) ;
#213 = VERTEX_POINT ( 'NONE', #79 ) ;
#214 = PERSON_AND_ORGANIZATION_ROLE ( 'design_supplier' ) ;
#215 = CARTESIAN_POINT ( 'NONE',  ( -4.099999999999999645, 0.000000000000000000, 165.0000000000000000 ) ) ;
#216 = DIRECTION ( 'NONE',  ( -1.000000000000000000, 0.000000000000000000, 0.000000000000000000 ) ) ;
#217 = DIRECTION ( 'NONE',  ( 0.000000000000000000, 0.000000000000000000, 1.000000000000000000 ) ) ;
#218 = PLANE ( 'NONE',  #265 ) ;
#219 = DIRECTION ( 'NONE',  ( 1.000000000000000000, 0.000000000000000000, 0.000000000000000000 ) ) ;
#220 = DIRECTION ( 'NONE',  ( 1.000000000000000000, 0.000000000000000000, 0.000000000000000000 ) ) ;
#221 = EDGE_CURVE ( 'NONE', #113, #224, #270, .T. ) ;
#222 =( NAMED_UNIT ( * ) PLANE_ANGLE_UNIT ( ) SI_UNIT ( $, .RADIAN. ) );
#223 = AXIS2_PLACEMENT_3D ( 'NONE', #7, #172, #216 ) ;
#224 = VERTEX_POINT ( 'NONE', #34 ) ;
#225 = APPROVAL ( #30, 'NEURÈENÝ' ) ;
#226 = VECTOR ( 'NONE', #36, 1000.000000000000000 ) ;
#227 =( GEOMETRIC_REPRESENTATION_CONTEXT ( 3 ) GLOBAL_UNCERTAINTY_ASSIGNED_CONTEXT ( ( #170 ) ) GLOBAL_UNIT_ASSIGNED_CONTEXT ( ( #246, #222, #131 ) ) REPRESENTATION_CONTEXT ( 'NONE', 'WORKASPACE' ) );
#228 = PERSON_AND_ORGANIZATION_ROLE ( 'classification_officer' ) ;
#229 = VERTEX_POINT ( 'NONE', #102 ) ;
#230 = PERSON_AND_ORGANIZATION ( #110, #149 ) ;
#231 = VERTEX_POINT ( 'NONE', #1 ) ;
#232 = CIRCLE ( 'NONE', #108, 4.099999999999999645 ) ;
#233 = CALENDAR_DATE ( 2022, 7, 7 ) ;
#234 = DIRECTION ( 'NONE',  ( -1.000000000000000000, 0.000000000000000000, 0.000000000000000000 ) ) ;
#235 = EDGE_CURVE ( 'NONE', #113, #175, #35, .T. ) ;
#236 = DIRECTION ( 'NONE',  ( 1.000000000000000000, 0.000000000000000000, 0.000000000000000000 ) ) ;
#237 = CARTESIAN_POINT ( 'NONE',  ( 0.000000000000000000, 0.000000000000000000, 165.0000000000000000 ) ) ;
#238 = AXIS2_PLACEMENT_3D ( 'NONE', #240, #31, #252 ) ;
#239 = APPROVAL_ROLE ( '' ) ;
#240 = CARTESIAN_POINT ( 'NONE',  ( 0.000000000000000000, 0.000000000000000000, 5.000000000000000000 ) ) ;
#241 = AXIS2_PLACEMENT_3D ( 'NONE', #107, #245, #219 ) ;
#242 = DIRECTION ( 'NONE',  ( 1.000000000000000000, 0.000000000000000000, -0.000000000000000000 ) ) ;
#243 = DIRECTION ( 'NONE',  ( 1.000000000000000000, 0.000000000000000000, 0.000000000000000000 ) ) ;
#244 = AXIS2_PLACEMENT_3D ( 'NONE', #94, #42, #280 ) ;
#245 = DIRECTION ( 'NONE',  ( 0.000000000000000000, 0.000000000000000000, 1.000000000000000000 ) ) ;
#246 =( LENGTH_UNIT ( ) NAMED_UNIT ( * ) SI_UNIT ( .MILLI., .METRE. ) );
#247 = ADVANCED_FACE ( 'NONE', ( #150 ), #56, .T. ) ;
#248 = DIRECTION ( 'NONE',  ( 1.000000000000000000, 0.000000000000000000, 0.000000000000000000 ) ) ;
#249 = ADVANCED_FACE ( 'NONE', ( #127 ), #105, .F. ) ;
#250 = APPLICATION_PROTOCOL_DEFINITION ( 'international standard', 'config_control_design', 1994, #202 ) ;
#251 = EDGE_LOOP ( 'NONE', ( #140, #38 ) ) ;
#252 = DIRECTION ( 'NONE',  ( -1.000000000000000000, 0.000000000000000000, 0.000000000000000000 ) ) ;
#253 = ORIENTED_EDGE ( 'NONE', *, *, #221, .T. ) ;
#254 = PERSON_AND_ORGANIZATION_ROLE ( 'design_owner' ) ;
#255 = ORIENTED_EDGE ( 'NONE', *, *, #151, .T. ) ;
#256 = ORIENTED_EDGE ( 'NONE', *, *, #148, .F. ) ;
#257 = PERSON_AND_ORGANIZATION ( #110, #149 ) ;
#258 = CARTESIAN_POINT ( 'NONE',  ( 0.000000000000000000, 0.000000000000000000, 5.000000000000000000 ) ) ;
#259 = FACE_OUTER_BOUND ( 'NONE', #251, .T. ) ;
#260 = SECURITY_CLASSIFICATION ( '', '', #279 ) ;
#261 = CARTESIAN_POINT ( 'NONE',  ( -7.000000000000000000, 0.000000000000000000, 5.000000000000000000 ) ) ;
#262 = DIRECTION ( 'NONE',  ( 0.000000000000000000, 0.000000000000000000, 1.000000000000000000 ) ) ;
#263 = CYLINDRICAL_SURFACE ( 'NONE', #223, 4.099999999999999645 ) ;
#264 = PRODUCT_DEFINITION ( 'NEZNÁMÝ', '', #142, #180 ) ;
#265 = AXIS2_PLACEMENT_3D ( 'NONE', #193, #103, #167 ) ;
#266 = CARTESIAN_POINT ( 'NONE',  ( 7.000000000000000000, 8.572527594031473190E-16, 5.000000000000000000 ) ) ;
#267 = VERTEX_POINT ( 'NONE', #154 ) ;
#268 = PRODUCT_DEFINITION_SHAPE ( 'NONE', 'NONE',  #264 ) ;
#269 = ORIENTED_EDGE ( 'NONE', *, *, #290, .F. ) ;
#270 = CIRCLE ( 'NONE', #141, 7.000000000000000000 ) ;
#271 = LOCAL_TIME ( 14, 33, 12.00000000000000000, #305 ) ;
#272 = ADVANCED_FACE ( 'NONE', ( #197 ), #263, .T. ) ;
#273 = ORIENTED_EDGE ( 'NONE', *, *, #47, .T. ) ;
#274 = DATE_AND_TIME ( #97, #78 ) ;
#275 = DIRECTION ( 'NONE',  ( 1.000000000000000000, 0.000000000000000000, 0.000000000000000000 ) ) ;
#276 = VECTOR ( 'NONE', #32, 1000.000000000000000 ) ;
#277 = FACE_OUTER_BOUND ( 'NONE', #12, .T. ) ;
#278 = ADVANCED_FACE ( 'NONE', ( #259 ), #218, .T. ) ;
#279 = SECURITY_CLASSIFICATION_LEVEL ( 'unclassified' ) ;
#280 = DIRECTION ( 'NONE',  ( 1.000000000000000000, 0.000000000000000000, 0.000000000000000000 ) ) ;
#281 = AXIS2_PLACEMENT_3D ( 'NONE', #301, #191, #211 ) ;
#282 = PERSON_AND_ORGANIZATION ( #110, #149 ) ;
#283 = ORIENTED_EDGE ( 'NONE', *, *, #138, .T. ) ;
#284 = DATE_AND_TIME ( #43, #271 ) ;
#285 = ORIENTED_EDGE ( 'NONE', *, *, #132, .F. ) ;
#286 = FACE_OUTER_BOUND ( 'NONE', #162, .T. ) ;
#287 = CARTESIAN_POINT ( 'NONE',  ( 0.000000000000000000, 0.000000000000000000, 5.000000000000000000 ) ) ;
#288 = AXIS2_PLACEMENT_3D ( 'NONE', #90, #186, #236 ) ;
#289 = DIRECTION ( 'NONE',  ( 1.000000000000000000, 0.000000000000000000, 0.000000000000000000 ) ) ;
#290 = EDGE_CURVE ( 'NONE', #224, #213, #51, .T. ) ;
#291 = DIRECTION ( 'NONE',  ( 0.000000000000000000, 0.000000000000000000, -1.000000000000000000 ) ) ;
#292 = CIRCLE ( 'NONE', #8, 4.099999999999999645 ) ;
#293 = CARTESIAN_POINT ( 'NONE',  ( 0.000000000000000000, 0.000000000000000000, 5.000000000000000000 ) ) ;
#294 = ORIENTED_EDGE ( 'NONE', *, *, #120, .F. ) ;
#295 = VERTEX_POINT ( 'NONE', #126 ) ;
#296 = SHAPE_DEFINITION_REPRESENTATION ( #268, #86 ) ;
#297 = EDGE_CURVE ( 'NONE', #46, #231, #104, .T. ) ;
#298 = DATE_TIME_ROLE ( 'classification_date' ) ;
#299 = DIRECTION ( 'NONE',  ( 1.000000000000000000, 0.000000000000000000, 0.000000000000000000 ) ) ;
#300 = ORIENTED_EDGE ( 'NONE', *, *, #235, .T. ) ;
#301 = CARTESIAN_POINT ( 'NONE',  ( 0.000000000000000000, 0.000000000000000000, 5.200000000000009948 ) ) ;
#302 = CLOSED_SHELL ( 'NONE', ( #190, #59, #247, #129, #83, #249, #272, #278, #91 ) ) ;
#303 = PERSON_AND_ORGANIZATION ( #110, #149 ) ;
#304 = FACE_BOUND ( 'NONE', #61, .T. ) ;
#305 = COORDINATED_UNIVERSAL_TIME_OFFSET ( 1, 0, .AHEAD. ) ;
#306 = TOROIDAL_SURFACE ( 'NONE', #241, 4.299999999999998934, 0.2000000000000000111 ) ;
#307 = EDGE_CURVE ( 'NONE', #267, #46, #196, .T. ) ;
ENDSEC;
END-ISO-10303-21;
