ISO-10303-21;
HEADER;
FILE_DESCRIPTION (( 'STEP AP203' ),
    '1' );
FILE_NAME ('3cd2.STEP',
    '2022-07-07T12:54:42',
    ( '' ),
    ( '' ),
    'SwSTEP 2.0',
    'SolidWorks 2019',
    '' );
FILE_SCHEMA (( 'CONFIG_CONTROL_DESIGN' ));
ENDSEC;

DATA;
#1 = AXIS2_PLACEMENT_3D ( 'NONE', #278, #296, #140 ) ;
#2 = SECURITY_CLASSIFICATION ( '', '', #281 ) ;
#3 = ORIENTED_EDGE ( 'NONE', *, *, #59, .T. ) ;
#4 = EDGE_CURVE ( 'NONE', #188, #77, #233, .T. ) ;
#5 = ORIENTED_EDGE ( 'NONE', *, *, #4, .T. ) ;
#6 = EDGE_LOOP ( 'NONE', ( #216, #244 ) ) ;
#7 = ORIENTED_EDGE ( 'NONE', *, *, #122, .T. ) ;
#8 = AXIS2_PLACEMENT_3D ( 'NONE', #274, #66, #45 ) ;
#9 = FACE_OUTER_BOUND ( 'NONE', #266, .T. ) ;
#10 = PRODUCT_DEFINITION_SHAPE ( 'NONE', 'NONE',  #298 ) ;
#11 = APPROVAL_PERSON_ORGANIZATION ( #86, #40, #17 ) ;
#12 = PLANE ( 'NONE',  #18 ) ;
#13 = CLOSED_SHELL ( 'NONE', ( #41, #169, #90, #194, #289, #285, #197, #91, #84 ) ) ;
#14 = DIRECTION ( 'NONE',  ( 1.000000000000000000, 0.000000000000000000, 0.000000000000000000 ) ) ;
#15 = APPROVAL_DATE_TIME ( #137, #40 ) ;
#16 = ORIENTED_EDGE ( 'NONE', *, *, #122, .F. ) ;
#17 = APPROVAL_ROLE ( '' ) ;
#18 = AXIS2_PLACEMENT_3D ( 'NONE', #65, #230, #155 ) ;
#19 = LINE ( 'NONE', #302, #221 ) ;
#20 = VECTOR ( 'NONE', #209, 1000.000000000000000 ) ;
#21 = CALENDAR_DATE ( 2022, 7, 7 ) ;
#22 = CARTESIAN_POINT ( 'NONE',  ( 1.500000000000000222, 1.836970198721030181E-16, 318.0000000000000000 ) ) ;
#23 =( LENGTH_UNIT ( ) NAMED_UNIT ( * ) SI_UNIT ( .MILLI., .METRE. ) );
#24 = EDGE_CURVE ( 'NONE', #53, #263, #165, .T. ) ;
#25 = ORIENTED_EDGE ( 'NONE', *, *, #24, .T. ) ;
#26 = TOROIDAL_SURFACE ( 'NONE', #154, 1.700000000000000400, 0.2000000000000000111 ) ;
#27 =( GEOMETRIC_REPRESENTATION_CONTEXT ( 3 ) GLOBAL_UNCERTAINTY_ASSIGNED_CONTEXT ( ( #257 ) ) GLOBAL_UNIT_ASSIGNED_CONTEXT ( ( #23, #34, #267 ) ) REPRESENTATION_CONTEXT ( 'NONE', 'WORKASPACE' ) );
#28 = APPROVAL_STATUS ( 'not_yet_approved' ) ;
#29 = CC_DESIGN_DATE_AND_TIME_ASSIGNMENT ( #203, #72, ( #298 ) ) ;
#30 = EDGE_LOOP ( 'NONE', ( #103, #189 ) ) ;
#31 = PERSON ( 'NEURÈENÝ', 'NEURÈENÝ', 'NEURÈENÝ', ('NEURÈENÝ'), ('NEURÈENÝ'), ('NEURÈENÝ') ) ;
#32 = ORIENTED_EDGE ( 'NONE', *, *, #151, .F. ) ;
#33 = AXIS2_PLACEMENT_3D ( 'NONE', #280, #256, #48 ) ;
#34 =( NAMED_UNIT ( * ) PLANE_ANGLE_UNIT ( ) SI_UNIT ( $, .RADIAN. ) );
#35 = DIRECTION ( 'NONE',  ( 0.000000000000000000, 0.000000000000000000, 1.000000000000000000 ) ) ;
#36 = DIRECTION ( 'NONE',  ( 1.000000000000000000, 0.000000000000000000, -0.000000000000000000 ) ) ;
#37 = LOCAL_TIME ( 14, 54, 42.00000000000000000, #112 ) ;
#38 = AXIS2_PLACEMENT_3D ( 'NONE', #299, #228, #80 ) ;
#39 = CARTESIAN_POINT ( 'NONE',  ( 3.000000000000000444, 3.673940397442060361E-16, 0.000000000000000000 ) ) ;
#40 = APPROVAL ( #70, 'NEURÈENÝ' ) ;
#41 = ADVANCED_FACE ( 'NONE', ( #97 ), #26, .F. ) ;
#42 = DIRECTION ( 'NONE',  ( 1.000000000000000000, 0.000000000000000000, 0.000000000000000000 ) ) ;
#43 = DIRECTION ( 'NONE',  ( 1.000000000000000000, 0.000000000000000000, 0.000000000000000000 ) ) ;
#44 = CYLINDRICAL_SURFACE ( 'NONE', #269, 3.000000000000000444 ) ;
#45 = DIRECTION ( 'NONE',  ( 1.000000000000000000, 0.000000000000000000, -0.000000000000000000 ) ) ;
#46 = AXIS2_PLACEMENT_3D ( 'NONE', #247, #35, #14 ) ;
#47 = PERSON_AND_ORGANIZATION ( #31, #132 ) ;
#48 = DIRECTION ( 'NONE',  ( 0.000000000000000000, 0.000000000000000000, -1.000000000000000000 ) ) ;
#49 = LOCAL_TIME ( 14, 54, 42.00000000000000000, #117 ) ;
#50 = CC_DESIGN_PERSON_AND_ORGANIZATION_ASSIGNMENT ( #224, #107, ( #81 ) ) ;
#51 = TOROIDAL_SURFACE ( 'NONE', #246, 1.700000000000000400, 0.2000000000000000111 ) ;
#52 = EDGE_LOOP ( 'NONE', ( #32, #126, #145, #261 ) ) ;
#53 = VERTEX_POINT ( 'NONE', #185 ) ;
#54 = APPROVAL_PERSON_ORGANIZATION ( #47, #237, #184 ) ;
#55 = AXIS2_PLACEMENT_3D ( 'NONE', #249, #108, #83 ) ;
#56 = VERTEX_POINT ( 'NONE', #304 ) ;
#57 = EDGE_LOOP ( 'NONE', ( #196, #105, #192, #101 ) ) ;
#58 = EDGE_CURVE ( 'NONE', #195, #99, #239, .T. ) ;
#59 = EDGE_CURVE ( 'NONE', #263, #53, #147, .T. ) ;
#60 = CARTESIAN_POINT ( 'NONE',  ( 0.000000000000000000, 0.000000000000000000, 0.000000000000000000 ) ) ;
#61 = DIRECTION ( 'NONE',  ( 1.000000000000000000, 0.000000000000000000, 0.000000000000000000 ) ) ;
#62 = FACE_BOUND ( 'NONE', #259, .T. ) ;
#63 = DIRECTION ( 'NONE',  ( -1.000000000000000000, 0.000000000000000000, 0.000000000000000000 ) ) ;
#64 = LOCAL_TIME ( 14, 54, 42.00000000000000000, #160 ) ;
#65 = CARTESIAN_POINT ( 'NONE',  ( 0.000000000000000000, 0.000000000000000000, 3.000000000000000000 ) ) ;
#66 = DIRECTION ( 'NONE',  ( 0.000000000000000000, 0.000000000000000000, 1.000000000000000000 ) ) ;
#67 = CALENDAR_DATE ( 2022, 7, 7 ) ;
#68 = CARTESIAN_POINT ( 'NONE',  ( 0.000000000000000000, 0.000000000000000000, 3.199999999999980638 ) ) ;
#69 = CARTESIAN_POINT ( 'NONE',  ( 0.000000000000000000, 0.000000000000000000, 3.199999999999980638 ) ) ;
#70 = APPROVAL_STATUS ( 'not_yet_approved' ) ;
#71 = DIRECTION ( 'NONE',  ( -1.000000000000000000, 0.000000000000000000, 0.000000000000000000 ) ) ;
#72 = DATE_TIME_ROLE ( 'creation_date' ) ;
#73 = CARTESIAN_POINT ( 'NONE',  ( -1.700000000000000400, 2.081899558550500773E-16, 3.199999999999980638 ) ) ;
#74 = PERSON_AND_ORGANIZATION ( #31, #132 ) ;
#75 = ORIENTED_EDGE ( 'NONE', *, *, #172, .T. ) ;
#76 = ORIENTED_EDGE ( 'NONE', *, *, #4, .F. ) ;
#77 = VERTEX_POINT ( 'NONE', #283 ) ;
#78 = VERTEX_POINT ( 'NONE', #94 ) ;
#79 = CALENDAR_DATE ( 2022, 7, 7 ) ;
#80 = DIRECTION ( 'NONE',  ( -1.000000000000000000, 0.000000000000000000, 0.000000000000000000 ) ) ;
#81 = PRODUCT ( '3cd2', '3cd2', '', ( #127 ) ) ;
#82 = CARTESIAN_POINT ( 'NONE',  ( 0.000000000000000000, 0.000000000000000000, 318.0000000000000000 ) ) ;
#83 = DIRECTION ( 'NONE',  ( 1.000000000000000000, 0.000000000000000000, 0.000000000000000000 ) ) ;
#84 = ADVANCED_FACE ( 'NONE', ( #85 ), #51, .F. ) ;
#85 = FACE_OUTER_BOUND ( 'NONE', #149, .T. ) ;
#86 = PERSON_AND_ORGANIZATION ( #31, #132 ) ;
#87 = CIRCLE ( 'NONE', #46, 1.500000000000000222 ) ;
#88 = CARTESIAN_POINT ( 'NONE',  ( 1.500000000000000222, 1.836970198721030181E-16, 3.199999999999980638 ) ) ;
#89 = COORDINATED_UNIVERSAL_TIME_OFFSET ( 1, 0, .AHEAD. ) ;
#90 = ADVANCED_FACE ( 'NONE', ( #181 ), #44, .T. ) ;
#91 = ADVANCED_FACE ( 'NONE', ( #232 ), #251, .T. ) ;
#92 = DIRECTION ( 'NONE',  ( -0.000000000000000000, -0.000000000000000000, -1.000000000000000000 ) ) ;
#93 = APPLICATION_PROTOCOL_DEFINITION ( 'international standard', 'config_control_design', 1994, #193 ) ;
#94 = CARTESIAN_POINT ( 'NONE',  ( -1.700000000000000400, 2.081899558550500773E-16, 2.999999999999990674 ) ) ;
#95 = AXIS2_PLACEMENT_3D ( 'NONE', #60, #303, #170 ) ;
#96 = AXIS2_PLACEMENT_3D ( 'NONE', #295, #200, #293 ) ;
#97 = FACE_OUTER_BOUND ( 'NONE', #167, .T. ) ;
#98 = EDGE_CURVE ( 'NONE', #263, #287, #19, .T. ) ;
#99 = VERTEX_POINT ( 'NONE', #282 ) ;
#100 = CIRCLE ( 'NONE', #264, 3.000000000000000444 ) ;
#101 = ORIENTED_EDGE ( 'NONE', *, *, #164, .F. ) ;
#102 = EDGE_CURVE ( 'NONE', #56, #188, #207, .T. ) ;
#103 = ORIENTED_EDGE ( 'NONE', *, *, #271, .F. ) ;
#104 = EDGE_CURVE ( 'NONE', #99, #188, #138, .T. ) ;
#105 = ORIENTED_EDGE ( 'NONE', *, *, #98, .T. ) ;
#106 = ORIENTED_EDGE ( 'NONE', *, *, #58, .F. ) ;
#107 = PERSON_AND_ORGANIZATION_ROLE ( 'design_owner' ) ;
#108 = DIRECTION ( 'NONE',  ( 0.000000000000000000, 0.000000000000000000, 1.000000000000000000 ) ) ;
#109 = CIRCLE ( 'NONE', #55, 3.000000000000000444 ) ;
#110 = DIRECTION ( 'NONE',  ( 0.000000000000000000, 0.000000000000000000, 1.000000000000000000 ) ) ;
#111 = DIRECTION ( 'NONE',  ( -0.000000000000000000, -0.000000000000000000, -1.000000000000000000 ) ) ;
#112 = COORDINATED_UNIVERSAL_TIME_OFFSET ( 1, 0, .AHEAD. ) ;
#113 = DIRECTION ( 'NONE',  ( -1.000000000000000000, 1.224646799147353207E-16, 0.000000000000000000 ) ) ;
#114 = CARTESIAN_POINT ( 'NONE',  ( 0.000000000000000000, 0.000000000000000000, 3.199999999999980638 ) ) ;
#115 = PERSON_AND_ORGANIZATION_ROLE ( 'creator' ) ;
#116 = DIRECTION ( 'NONE',  ( 0.000000000000000000, 0.000000000000000000, 1.000000000000000000 ) ) ;
#117 = COORDINATED_UNIVERSAL_TIME_OFFSET ( 1, 0, .AHEAD. ) ;
#118 = EDGE_LOOP ( 'NONE', ( #284, #106, #124, #166 ) ) ;
#119 = CC_DESIGN_APPROVAL ( #286, ( #2 ) ) ;
#120 = AXIS2_PLACEMENT_3D ( 'NONE', #156, #116, #43 ) ;
#121 = DATE_AND_TIME ( #212, #213 ) ;
#122 = EDGE_CURVE ( 'NONE', #56, #78, #168, .T. ) ;
#123 = VERTEX_POINT ( 'NONE', #205 ) ;
#124 = ORIENTED_EDGE ( 'NONE', *, *, #176, .T. ) ;
#125 = CC_DESIGN_DATE_AND_TIME_ASSIGNMENT ( #157, #235, ( #2 ) ) ;
#126 = ORIENTED_EDGE ( 'NONE', *, *, #104, .T. ) ;
#127 = MECHANICAL_CONTEXT ( 'NONE', #129, 'mechanical' ) ;
#128 = CYLINDRICAL_SURFACE ( 'NONE', #38, 1.500000000000000222 ) ;
#129 = APPLICATION_CONTEXT ( 'configuration controlled 3d designs of mechanical parts and assemblies' ) ;
#130 = CARTESIAN_POINT ( 'NONE',  ( 0.000000000000000000, 0.000000000000000000, 3.000000000000000000 ) ) ;
#131 = LOCAL_TIME ( 14, 54, 42.00000000000000000, #89 ) ;
#132 = ORGANIZATION ( 'NEURÈENÝ', 'NEURÈENÝ', '' ) ;
#133 = LINE ( 'NONE', #204, #227 ) ;
#134 = DIRECTION ( 'NONE',  ( -0.000000000000000000, -0.000000000000000000, -1.000000000000000000 ) ) ;
#135 = ORIENTED_EDGE ( 'NONE', *, *, #291, .F. ) ;
#136 = CARTESIAN_POINT ( 'NONE',  ( 0.000000000000000000, 0.000000000000000000, 3.000000000000000000 ) ) ;
#137 = DATE_AND_TIME ( #79, #64 ) ;
#138 = LINE ( 'NONE', #22, #20 ) ;
#139 = PERSON_AND_ORGANIZATION_ROLE ( 'classification_officer' ) ;
#140 = DIRECTION ( 'NONE',  ( 1.000000000000000000, 0.000000000000000000, 0.000000000000000000 ) ) ;
#141 = DESIGN_CONTEXT ( 'detailed design', #193, 'design' ) ;
#142 = AXIS2_PLACEMENT_3D ( 'NONE', #234, #300, #254 ) ;
#143 = SHAPE_DEFINITION_REPRESENTATION ( #10, #223 ) ;
#144 = CC_DESIGN_PERSON_AND_ORGANIZATION_ASSIGNMENT ( #276, #115, ( #220 ) ) ;
#145 = ORIENTED_EDGE ( 'NONE', *, *, #245, .T. ) ;
#146 = ORIENTED_EDGE ( 'NONE', *, *, #245, .F. ) ;
#147 = CIRCLE ( 'NONE', #142, 3.000000000000000444 ) ;
#148 = ORIENTED_EDGE ( 'NONE', *, *, #24, .F. ) ;
#149 = EDGE_LOOP ( 'NONE', ( #16, #146, #5, #218 ) ) ;
#150 = CARTESIAN_POINT ( 'NONE',  ( 3.000000000000000444, 3.673940397442060361E-16, 3.000000000000000000 ) ) ;
#151 = EDGE_CURVE ( 'NONE', #99, #195, #87, .T. ) ;
#152 = FACE_OUTER_BOUND ( 'NONE', #118, .T. ) ;
#153 = DIRECTION ( 'NONE',  ( 0.000000000000000000, 0.000000000000000000, 1.000000000000000000 ) ) ;
#154 = AXIS2_PLACEMENT_3D ( 'NONE', #69, #161, #163 ) ;
#155 = DIRECTION ( 'NONE',  ( 1.000000000000000000, 0.000000000000000000, -0.000000000000000000 ) ) ;
#156 = CARTESIAN_POINT ( 'NONE',  ( 0.000000000000000000, 0.000000000000000000, 3.199999999999980638 ) ) ;
#157 = DATE_AND_TIME ( #67, #49 ) ;
#158 = CYLINDRICAL_SURFACE ( 'NONE', #173, 3.000000000000000444 ) ;
#159 = CARTESIAN_POINT ( 'NONE',  ( 0.000000000000000000, 0.000000000000000000, 318.0000000000000000 ) ) ;
#160 = COORDINATED_UNIVERSAL_TIME_OFFSET ( 1, 0, .AHEAD. ) ;
#161 = DIRECTION ( 'NONE',  ( 0.000000000000000000, 0.000000000000000000, 1.000000000000000000 ) ) ;
#162 = PERSON_AND_ORGANIZATION ( #31, #132 ) ;
#163 = DIRECTION ( 'NONE',  ( 1.000000000000000000, 0.000000000000000000, 0.000000000000000000 ) ) ;
#164 = EDGE_CURVE ( 'NONE', #53, #123, #133, .T. ) ;
#165 = CIRCLE ( 'NONE', #1, 3.000000000000000444 ) ;
#166 = ORIENTED_EDGE ( 'NONE', *, *, #102, .T. ) ;
#167 = EDGE_LOOP ( 'NONE', ( #217, #7, #135, #76 ) ) ;
#168 = CIRCLE ( 'NONE', #255, 0.2000000000000000944 ) ;
#169 = ADVANCED_FACE ( 'NONE', ( #277 ), #128, .T. ) ;
#170 = DIRECTION ( 'NONE',  ( 1.000000000000000000, 0.000000000000000000, 0.000000000000000000 ) ) ;
#171 = CARTESIAN_POINT ( 'NONE',  ( -1.500000000000000222, 0.000000000000000000, 318.0000000000000000 ) ) ;
#172 = EDGE_CURVE ( 'NONE', #78, #77, #187, .T. ) ;
#173 = AXIS2_PLACEMENT_3D ( 'NONE', #175, #180, #63 ) ;
#174 = PLANE ( 'NONE',  #265 ) ;
#175 = CARTESIAN_POINT ( 'NONE',  ( 0.000000000000000000, 0.000000000000000000, 3.000000000000000000 ) ) ;
#176 = EDGE_CURVE ( 'NONE', #195, #56, #202, .T. ) ;
#177 = CYLINDRICAL_SURFACE ( 'NONE', #190, 1.500000000000000222 ) ;
#178 = APPROVAL_PERSON_ORGANIZATION ( #74, #286, #260 ) ;
#179 = APPROVAL_DATE_TIME ( #182, #237 ) ;
#180 = DIRECTION ( 'NONE',  ( -0.000000000000000000, -0.000000000000000000, -1.000000000000000000 ) ) ;
#181 = FACE_OUTER_BOUND ( 'NONE', #57, .T. ) ;
#182 = DATE_AND_TIME ( #21, #131 ) ;
#183 = DIRECTION ( 'NONE',  ( 1.000000000000000000, 0.000000000000000000, 0.000000000000000000 ) ) ;
#184 = APPROVAL_ROLE ( '' ) ;
#185 = CARTESIAN_POINT ( 'NONE',  ( -3.000000000000000444, 0.000000000000000000, 3.000000000000000000 ) ) ;
#186 = AXIS2_PLACEMENT_3D ( 'NONE', #130, #250, #42 ) ;
#187 = CIRCLE ( 'NONE', #96, 1.700000000000000400 ) ;
#188 = VERTEX_POINT ( 'NONE', #88 ) ;
#189 = ORIENTED_EDGE ( 'NONE', *, *, #229, .F. ) ;
#190 = AXIS2_PLACEMENT_3D ( 'NONE', #82, #134, #225 ) ;
#191 = APPROVAL_DATE_TIME ( #121, #286 ) ;
#192 = ORIENTED_EDGE ( 'NONE', *, *, #229, .T. ) ;
#193 = APPLICATION_CONTEXT ( 'configuration controlled 3d designs of mechanical parts and assemblies' ) ;
#194 = ADVANCED_FACE ( 'NONE', ( #9 ), #158, .T. ) ;
#195 = VERTEX_POINT ( 'NONE', #268 ) ;
#196 = ORIENTED_EDGE ( 'NONE', *, *, #59, .F. ) ;
#197 = ADVANCED_FACE ( 'NONE', ( #152 ), #177, .T. ) ;
#198 = PERSON_AND_ORGANIZATION ( #31, #132 ) ;
#199 = PRODUCT_RELATED_PRODUCT_CATEGORY ( 'detail', '', ( #81 ) ) ;
#200 = DIRECTION ( 'NONE',  ( -0.000000000000000000, -0.000000000000000000, -1.000000000000000000 ) ) ;
#201 = CARTESIAN_POINT ( 'NONE',  ( 0.000000000000000000, 0.000000000000000000, 0.000000000000000000 ) ) ;
#202 = LINE ( 'NONE', #171, #301 ) ;
#203 = DATE_AND_TIME ( #206, #37 ) ;
#204 = CARTESIAN_POINT ( 'NONE',  ( -3.000000000000000444, 0.000000000000000000, 3.000000000000000000 ) ) ;
#205 = CARTESIAN_POINT ( 'NONE',  ( -3.000000000000000444, 0.000000000000000000, 0.000000000000000000 ) ) ;
#206 = CALENDAR_DATE ( 2022, 7, 7 ) ;
#207 = CIRCLE ( 'NONE', #120, 1.500000000000000222 ) ;
#208 = DIRECTION ( 'NONE',  ( -0.000000000000000000, -0.000000000000000000, -1.000000000000000000 ) ) ;
#209 = DIRECTION ( 'NONE',  ( -0.000000000000000000, -0.000000000000000000, -1.000000000000000000 ) ) ;
#210 = PERSON_AND_ORGANIZATION_ROLE ( 'creator' ) ;
#211 = DIRECTION ( 'NONE',  ( 0.000000000000000000, 0.000000000000000000, 1.000000000000000000 ) ) ;
#212 = CALENDAR_DATE ( 2022, 7, 7 ) ;
#213 = LOCAL_TIME ( 14, 54, 42.00000000000000000, #258 ) ;
#214 = AXIS2_PLACEMENT_3D ( 'NONE', #68, #153, #61 ) ;
#215 = CC_DESIGN_PERSON_AND_ORGANIZATION_ASSIGNMENT ( #162, #139, ( #2 ) ) ;
#216 = ORIENTED_EDGE ( 'NONE', *, *, #58, .T. ) ;
#217 = ORIENTED_EDGE ( 'NONE', *, *, #102, .F. ) ;
#218 = ORIENTED_EDGE ( 'NONE', *, *, #172, .F. ) ;
#219 = ORIENTED_EDGE ( 'NONE', *, *, #98, .F. ) ;
#220 = PRODUCT_DEFINITION_FORMATION_WITH_SPECIFIED_SOURCE ( 'LIBOVOLNÝ', '', #81, .NOT_KNOWN. ) ;
#221 = VECTOR ( 'NONE', #92, 1000.000000000000000 ) ;
#222 = CC_DESIGN_PERSON_AND_ORGANIZATION_ASSIGNMENT ( #279, #292, ( #220 ) ) ;
#223 = ADVANCED_BREP_SHAPE_REPRESENTATION ( '3cd2', ( #241, #95 ), #27 ) ;
#224 = PERSON_AND_ORGANIZATION ( #31, #132 ) ;
#225 = DIRECTION ( 'NONE',  ( -1.000000000000000000, 0.000000000000000000, 0.000000000000000000 ) ) ;
#226 = FACE_OUTER_BOUND ( 'NONE', #30, .T. ) ;
#227 = VECTOR ( 'NONE', #111, 1000.000000000000000 ) ;
#228 = DIRECTION ( 'NONE',  ( -0.000000000000000000, -0.000000000000000000, -1.000000000000000000 ) ) ;
#229 = EDGE_CURVE ( 'NONE', #287, #123, #100, .T. ) ;
#230 = DIRECTION ( 'NONE',  ( 0.000000000000000000, 0.000000000000000000, 1.000000000000000000 ) ) ;
#231 = DIRECTION ( 'NONE',  ( 1.224646799147353207E-16, 1.000000000000000000, -0.000000000000000000 ) ) ;
#232 = FACE_OUTER_BOUND ( 'NONE', #6, .T. ) ;
#233 = CIRCLE ( 'NONE', #33, 0.2000000000000000944 ) ;
#234 = CARTESIAN_POINT ( 'NONE',  ( 0.000000000000000000, 0.000000000000000000, 3.000000000000000000 ) ) ;
#235 = DATE_TIME_ROLE ( 'classification_date' ) ;
#236 = DIRECTION ( 'NONE',  ( 0.000000000000000000, 0.000000000000000000, 1.000000000000000000 ) ) ;
#237 = APPROVAL ( #297, 'NEURÈENÝ' ) ;
#238 = CC_DESIGN_APPROVAL ( #237, ( #220 ) ) ;
#239 = CIRCLE ( 'NONE', #275, 1.500000000000000222 ) ;
#240 = ORIENTED_EDGE ( 'NONE', *, *, #271, .T. ) ;
#241 = MANIFOLD_SOLID_BREP ( 'Zaoblit1', #13 ) ;
#242 = CIRCLE ( 'NONE', #214, 1.500000000000000222 ) ;
#243 = ORIENTED_EDGE ( 'NONE', *, *, #164, .T. ) ;
#244 = ORIENTED_EDGE ( 'NONE', *, *, #151, .T. ) ;
#245 = EDGE_CURVE ( 'NONE', #188, #56, #242, .T. ) ;
#246 = AXIS2_PLACEMENT_3D ( 'NONE', #114, #236, #183 ) ;
#247 = CARTESIAN_POINT ( 'NONE',  ( 0.000000000000000000, 0.000000000000000000, 318.0000000000000000 ) ) ;
#248 = CARTESIAN_POINT ( 'NONE',  ( 0.000000000000000000, 0.000000000000000000, 0.000000000000000000 ) ) ;
#249 = CARTESIAN_POINT ( 'NONE',  ( 0.000000000000000000, 0.000000000000000000, 0.000000000000000000 ) ) ;
#250 = DIRECTION ( 'NONE',  ( -0.000000000000000000, -0.000000000000000000, -1.000000000000000000 ) ) ;
#251 = PLANE ( 'NONE',  #8 ) ;
#252 = DIRECTION ( 'NONE',  ( 1.000000000000000000, 0.000000000000000000, 0.000000000000000000 ) ) ;
#253 = CC_DESIGN_PERSON_AND_ORGANIZATION_ASSIGNMENT ( #198, #210, ( #298 ) ) ;
#254 = DIRECTION ( 'NONE',  ( 1.000000000000000000, 0.000000000000000000, 0.000000000000000000 ) ) ;
#255 = AXIS2_PLACEMENT_3D ( 'NONE', #73, #231, #113 ) ;
#256 = DIRECTION ( 'NONE',  ( 0.000000000000000000, -1.000000000000000000, 0.000000000000000000 ) ) ;
#257 = UNCERTAINTY_MEASURE_WITH_UNIT (LENGTH_MEASURE( 1.000000000000000082E-05 ), #23, 'distance_accuracy_value', 'NONE');
#258 = COORDINATED_UNIVERSAL_TIME_OFFSET ( 1, 0, .AHEAD. ) ;
#259 = EDGE_LOOP ( 'NONE', ( #307, #75 ) ) ;
#260 = APPROVAL_ROLE ( '' ) ;
#261 = ORIENTED_EDGE ( 'NONE', *, *, #176, .F. ) ;
#262 = CC_DESIGN_APPROVAL ( #40, ( #298 ) ) ;
#263 = VERTEX_POINT ( 'NONE', #150 ) ;
#264 = AXIS2_PLACEMENT_3D ( 'NONE', #201, #110, #273 ) ;
#265 = AXIS2_PLACEMENT_3D ( 'NONE', #248, #270, #36 ) ;
#266 = EDGE_LOOP ( 'NONE', ( #219, #148, #243, #240 ) ) ;
#267 =( NAMED_UNIT ( * ) SI_UNIT ( $, .STERADIAN. ) SOLID_ANGLE_UNIT ( ) );
#268 = CARTESIAN_POINT ( 'NONE',  ( -1.500000000000000222, 0.000000000000000000, 318.0000000000000000 ) ) ;
#269 = AXIS2_PLACEMENT_3D ( 'NONE', #136, #208, #71 ) ;
#270 = DIRECTION ( 'NONE',  ( 0.000000000000000000, 0.000000000000000000, 1.000000000000000000 ) ) ;
#271 = EDGE_CURVE ( 'NONE', #123, #287, #109, .T. ) ;
#272 = DIRECTION ( 'NONE',  ( -0.000000000000000000, -0.000000000000000000, -1.000000000000000000 ) ) ;
#273 = DIRECTION ( 'NONE',  ( 1.000000000000000000, 0.000000000000000000, 0.000000000000000000 ) ) ;
#274 = CARTESIAN_POINT ( 'NONE',  ( 0.000000000000000000, 0.000000000000000000, 318.0000000000000000 ) ) ;
#275 = AXIS2_PLACEMENT_3D ( 'NONE', #159, #211, #252 ) ;
#276 = PERSON_AND_ORGANIZATION ( #31, #132 ) ;
#277 = FACE_OUTER_BOUND ( 'NONE', #52, .T. ) ;
#278 = CARTESIAN_POINT ( 'NONE',  ( 0.000000000000000000, 0.000000000000000000, 3.000000000000000000 ) ) ;
#279 = PERSON_AND_ORGANIZATION ( #31, #132 ) ;
#280 = CARTESIAN_POINT ( 'NONE',  ( 1.700000000000000400, 0.000000000000000000, 3.199999999999980638 ) ) ;
#281 = SECURITY_CLASSIFICATION_LEVEL ( 'unclassified' ) ;
#282 = CARTESIAN_POINT ( 'NONE',  ( 1.500000000000000222, 1.836970198721030181E-16, 318.0000000000000000 ) ) ;
#283 = CARTESIAN_POINT ( 'NONE',  ( 1.700000000000000400, 0.000000000000000000, 2.999999999999990674 ) ) ;
#284 = ORIENTED_EDGE ( 'NONE', *, *, #104, .F. ) ;
#285 = ADVANCED_FACE ( 'NONE', ( #226 ), #174, .F. ) ;
#286 = APPROVAL ( #28, 'NEURÈENÝ' ) ;
#287 = VERTEX_POINT ( 'NONE', #39 ) ;
#288 = EDGE_LOOP ( 'NONE', ( #25, #3 ) ) ;
#289 = ADVANCED_FACE ( 'NONE', ( #62, #294 ), #12, .T. ) ;
#290 = CIRCLE ( 'NONE', #186, 1.700000000000000400 ) ;
#291 = EDGE_CURVE ( 'NONE', #77, #78, #290, .T. ) ;
#292 = PERSON_AND_ORGANIZATION_ROLE ( 'design_supplier' ) ;
#293 = DIRECTION ( 'NONE',  ( 1.000000000000000000, 0.000000000000000000, 0.000000000000000000 ) ) ;
#294 = FACE_OUTER_BOUND ( 'NONE', #288, .T. ) ;
#295 = CARTESIAN_POINT ( 'NONE',  ( 0.000000000000000000, 0.000000000000000000, 3.000000000000000000 ) ) ;
#296 = DIRECTION ( 'NONE',  ( 0.000000000000000000, 0.000000000000000000, 1.000000000000000000 ) ) ;
#297 = APPROVAL_STATUS ( 'not_yet_approved' ) ;
#298 = PRODUCT_DEFINITION ( 'NEZNÁMÝ', '', #220, #141 ) ;
#299 = CARTESIAN_POINT ( 'NONE',  ( 0.000000000000000000, 0.000000000000000000, 318.0000000000000000 ) ) ;
#300 = DIRECTION ( 'NONE',  ( 0.000000000000000000, 0.000000000000000000, 1.000000000000000000 ) ) ;
#301 = VECTOR ( 'NONE', #272, 1000.000000000000000 ) ;
#302 = CARTESIAN_POINT ( 'NONE',  ( 3.000000000000000444, 3.673940397442060361E-16, 3.000000000000000000 ) ) ;
#303 = DIRECTION ( 'NONE',  ( 0.000000000000000000, 0.000000000000000000, 1.000000000000000000 ) ) ;
#304 = CARTESIAN_POINT ( 'NONE',  ( -1.500000000000000222, 0.000000000000000000, 3.199999999999980638 ) ) ;
#305 = APPLICATION_PROTOCOL_DEFINITION ( 'international standard', 'config_control_design', 1994, #129 ) ;
#306 = CC_DESIGN_SECURITY_CLASSIFICATION ( #2, ( #220 ) ) ;
#307 = ORIENTED_EDGE ( 'NONE', *, *, #291, .T. ) ;
ENDSEC;
END-ISO-10303-21;
