ISO-10303-21;
HEADER;
FILE_DESCRIPTION (( 'STEP AP203' ),
    '1' );
FILE_NAME ('5df0.STEP',
    '2022-07-07T12:53:32',
    ( '' ),
    ( '' ),
    'SwSTEP 2.0',
    'SolidWorks 2019',
    '' );
FILE_SCHEMA (( 'CONFIG_CONTROL_DESIGN' ));
ENDSEC;

DATA;
#1 = APPROVAL_STATUS ( 'not_yet_approved' ) ;
#2 = EDGE_CURVE ( 'NONE', #130, #219, #177, .T. ) ;
#3 = APPROVAL_STATUS ( 'not_yet_approved' ) ;
#4 = APPLICATION_CONTEXT ( 'configuration controlled 3d designs of mechanical parts and assemblies' ) ;
#5 = DATE_TIME_ROLE ( 'creation_date' ) ;
#6 = ORIENTED_EDGE ( 'NONE', *, *, #13, .T. ) ;
#7 = EDGE_CURVE ( 'NONE', #130, #243, #30, .T. ) ;
#8 = DIRECTION ( 'NONE',  ( -1.000000000000000000, 0.000000000000000000, 0.000000000000000000 ) ) ;
#9 = CIRCLE ( 'NONE', #181, 0.2000000000000000944 ) ;
#10 = PLANE ( 'NONE',  #20 ) ;
#11 = ORIENTED_EDGE ( 'NONE', *, *, #27, .F. ) ;
#12 = ORIENTED_EDGE ( 'NONE', *, *, #7, .T. ) ;
#13 = EDGE_CURVE ( 'NONE', #219, #276, #284, .T. ) ;
#14 = ORIENTED_EDGE ( 'NONE', *, *, #174, .T. ) ;
#15 = DIRECTION ( 'NONE',  ( 1.000000000000000000, 0.000000000000000000, 0.000000000000000000 ) ) ;
#16 = EDGE_LOOP ( 'NONE', ( #151, #42 ) ) ;
#17 = ORIENTED_EDGE ( 'NONE', *, *, #285, .T. ) ;
#18 = FACE_OUTER_BOUND ( 'NONE', #178, .T. ) ;
#19 = CYLINDRICAL_SURFACE ( 'NONE', #71, 3.000000000000000444 ) ;
#20 = AXIS2_PLACEMENT_3D ( 'NONE', #81, #172, #271 ) ;
#21 = DIRECTION ( 'NONE',  ( 0.000000000000000000, 0.000000000000000000, 1.000000000000000000 ) ) ;
#22 = DIRECTION ( 'NONE',  ( 1.000000000000000000, 0.000000000000000000, 0.000000000000000000 ) ) ;
#23 = CC_DESIGN_PERSON_AND_ORGANIZATION_ASSIGNMENT ( #212, #52, ( #132 ) ) ;
#24 = CYLINDRICAL_SURFACE ( 'NONE', #248, 1.600000000000000089 ) ;
#25 = COORDINATED_UNIVERSAL_TIME_OFFSET ( 1, 0, .AHEAD. ) ;
#26 = ORGANIZATION ( 'NEURÈENÝ', 'NEURÈENÝ', '' ) ;
#27 = EDGE_CURVE ( 'NONE', #133, #105, #86, .T. ) ;
#28 = COORDINATED_UNIVERSAL_TIME_OFFSET ( 1, 0, .AHEAD. ) ;
#29 = DATE_AND_TIME ( #288, #123 ) ;
#30 = CIRCLE ( 'NONE', #150, 1.600000000000000089 ) ;
#31 = APPROVAL_STATUS ( 'not_yet_approved' ) ;
#32 = AXIS2_PLACEMENT_3D ( 'NONE', #278, #183, #256 ) ;
#33 = APPROVAL_DATE_TIME ( #283, #72 ) ;
#34 = CC_DESIGN_PERSON_AND_ORGANIZATION_ASSIGNMENT ( #167, #124, ( #88 ) ) ;
#35 = DIRECTION ( 'NONE',  ( 1.000000000000000000, 0.000000000000000000, 0.000000000000000000 ) ) ;
#36 = EDGE_LOOP ( 'NONE', ( #55, #14, #80, #196 ) ) ;
#37 = DIRECTION ( 'NONE',  ( 1.224646799147353207E-16, 1.000000000000000000, -0.000000000000000000 ) ) ;
#38 = CIRCLE ( 'NONE', #48, 3.000000000000000444 ) ;
#39 = ORIENTED_EDGE ( 'NONE', *, *, #57, .T. ) ;
#40 = CC_DESIGN_DATE_AND_TIME_ASSIGNMENT ( #217, #100, ( #144 ) ) ;
#41 = ORIENTED_EDGE ( 'NONE', *, *, #90, .F. ) ;
#42 = ORIENTED_EDGE ( 'NONE', *, *, #154, .T. ) ;
#43 = VERTEX_POINT ( 'NONE', #147 ) ;
#44 = AXIS2_PLACEMENT_3D ( 'NONE', #51, #46, #47 ) ;
#45 = DIRECTION ( 'NONE',  ( 1.000000000000000000, 0.000000000000000000, -0.000000000000000000 ) ) ;
#46 = DIRECTION ( 'NONE',  ( 0.000000000000000000, 0.000000000000000000, 1.000000000000000000 ) ) ;
#47 = DIRECTION ( 'NONE',  ( 1.000000000000000000, 0.000000000000000000, 0.000000000000000000 ) ) ;
#48 = AXIS2_PLACEMENT_3D ( 'NONE', #164, #21, #92 ) ;
#49 = ADVANCED_FACE ( 'NONE', ( #299 ), #226, .F. ) ;
#50 = FACE_BOUND ( 'NONE', #192, .T. ) ;
#51 = CARTESIAN_POINT ( 'NONE',  ( 0.000000000000000000, 0.000000000000000000, 3.199999999999980638 ) ) ;
#52 = PERSON_AND_ORGANIZATION_ROLE ( 'creator' ) ;
#53 = COORDINATED_UNIVERSAL_TIME_OFFSET ( 1, 0, .AHEAD. ) ;
#54 = APPLICATION_CONTEXT ( 'configuration controlled 3d designs of mechanical parts and assemblies' ) ;
#55 = ORIENTED_EDGE ( 'NONE', *, *, #285, .F. ) ;
#56 = DIRECTION ( 'NONE',  ( 1.000000000000000000, 0.000000000000000000, 0.000000000000000000 ) ) ;
#57 = EDGE_CURVE ( 'NONE', #243, #130, #115, .T. ) ;
#58 = PERSON ( 'NEURÈENÝ', 'NEURÈENÝ', 'NEURÈENÝ', ('NEURÈENÝ'), ('NEURÈENÝ'), ('NEURÈENÝ') ) ;
#59 = DIRECTION ( 'NONE',  ( 0.000000000000000000, 0.000000000000000000, 1.000000000000000000 ) ) ;
#60 = CC_DESIGN_SECURITY_CLASSIFICATION ( #144, ( #88 ) ) ;
#61 = LOCAL_TIME ( 14, 53, 32.00000000000000000, #69 ) ;
#62 = CARTESIAN_POINT ( 'NONE',  ( 0.000000000000000000, 0.000000000000000000, 403.0000000000000000 ) ) ;
#63 = CARTESIAN_POINT ( 'NONE',  ( 3.000000000000000444, 3.673940397442060361E-16, 3.000000000000000000 ) ) ;
#64 = DIRECTION ( 'NONE',  ( -0.000000000000000000, -0.000000000000000000, -1.000000000000000000 ) ) ;
#65 = LOCAL_TIME ( 14, 53, 32.00000000000000000, #28 ) ;
#66 =( NAMED_UNIT ( * ) PLANE_ANGLE_UNIT ( ) SI_UNIT ( $, .RADIAN. ) );
#67 = CARTESIAN_POINT ( 'NONE',  ( 0.000000000000000000, 0.000000000000000000, 3.000000000000000000 ) ) ;
#68 = DIRECTION ( 'NONE',  ( 1.000000000000000000, 0.000000000000000000, -0.000000000000000000 ) ) ;
#69 = COORDINATED_UNIVERSAL_TIME_OFFSET ( 1, 0, .AHEAD. ) ;
#70 = PERSON_AND_ORGANIZATION_ROLE ( 'design_supplier' ) ;
#71 = AXIS2_PLACEMENT_3D ( 'NONE', #67, #186, #136 ) ;
#72 = APPROVAL ( #3, 'NEURÈENÝ' ) ;
#73 = COORDINATED_UNIVERSAL_TIME_OFFSET ( 1, 0, .AHEAD. ) ;
#74 = ORIENTED_EDGE ( 'NONE', *, *, #174, .F. ) ;
#75 = CC_DESIGN_PERSON_AND_ORGANIZATION_ASSIGNMENT ( #282, #236, ( #144 ) ) ;
#76 = AXIS2_PLACEMENT_3D ( 'NONE', #142, #114, #45 ) ;
#77 = CC_DESIGN_APPROVAL ( #218, ( #144 ) ) ;
#78 = EDGE_LOOP ( 'NONE', ( #74, #251, #152, #153 ) ) ;
#79 = DIRECTION ( 'NONE',  ( 1.000000000000000000, 0.000000000000000000, 0.000000000000000000 ) ) ;
#80 = ORIENTED_EDGE ( 'NONE', *, *, #297, .F. ) ;
#81 = CARTESIAN_POINT ( 'NONE',  ( 0.000000000000000000, 0.000000000000000000, 403.0000000000000000 ) ) ;
#82 = CARTESIAN_POINT ( 'NONE',  ( 0.000000000000000000, 0.000000000000000000, 0.000000000000000000 ) ) ;
#83 = CC_DESIGN_APPROVAL ( #72, ( #132 ) ) ;
#84 = ORIENTED_EDGE ( 'NONE', *, *, #211, .F. ) ;
#85 = DIRECTION ( 'NONE',  ( 0.000000000000000000, 0.000000000000000000, 1.000000000000000000 ) ) ;
#86 = LINE ( 'NONE', #131, #257 ) ;
#87 = FACE_OUTER_BOUND ( 'NONE', #16, .T. ) ;
#88 = PRODUCT_DEFINITION_FORMATION_WITH_SPECIFIED_SOURCE ( 'LIBOVOLNÝ', '', #117, .NOT_KNOWN. ) ;
#89 =( LENGTH_UNIT ( ) NAMED_UNIT ( * ) SI_UNIT ( .MILLI., .METRE. ) );
#90 = EDGE_CURVE ( 'NONE', #244, #105, #200, .T. ) ;
#91 = CARTESIAN_POINT ( 'NONE',  ( 0.000000000000000000, 0.000000000000000000, 0.000000000000000000 ) ) ;
#92 = DIRECTION ( 'NONE',  ( 1.000000000000000000, 0.000000000000000000, 0.000000000000000000 ) ) ;
#93 = VECTOR ( 'NONE', #179, 1000.000000000000000 ) ;
#94 = CARTESIAN_POINT ( 'NONE',  ( -1.800000000000000266, 2.204364238465236069E-16, 2.999999999999990674 ) ) ;
#95 = SHAPE_DEFINITION_REPRESENTATION ( #270, #182 ) ;
#96 = APPROVAL_ROLE ( '' ) ;
#97 = AXIS2_PLACEMENT_3D ( 'NONE', #187, #64, #254 ) ;
#98 = APPLICATION_PROTOCOL_DEFINITION ( 'international standard', 'config_control_design', 1994, #4 ) ;
#99 = UNCERTAINTY_MEASURE_WITH_UNIT (LENGTH_MEASURE( 1.000000000000000082E-05 ), #89, 'distance_accuracy_value', 'NONE');
#100 = DATE_TIME_ROLE ( 'classification_date' ) ;
#101 = CIRCLE ( 'NONE', #201, 0.1999999999999998723 ) ;
#102 = DIRECTION ( 'NONE',  ( 1.000000000000000000, 0.000000000000000000, 0.000000000000000000 ) ) ;
#103 = APPROVAL_PERSON_ORGANIZATION ( #118, #163, #96 ) ;
#104 = DIRECTION ( 'NONE',  ( -0.000000000000000000, -0.000000000000000000, -1.000000000000000000 ) ) ;
#105 = VERTEX_POINT ( 'NONE', #273 ) ;
#106 = DIRECTION ( 'NONE',  ( -0.000000000000000000, -0.000000000000000000, -1.000000000000000000 ) ) ;
#107 = EDGE_LOOP ( 'NONE', ( #171, #227, #170, #198 ) ) ;
#108 = PLANE ( 'NONE',  #228 ) ;
#109 = VECTOR ( 'NONE', #203, 1000.000000000000000 ) ;
#110 = ADVANCED_FACE ( 'NONE', ( #293 ), #155, .T. ) ;
#111 = CARTESIAN_POINT ( 'NONE',  ( 1.800000000000000266, 0.000000000000000000, 3.199999999999980638 ) ) ;
#112 = DIRECTION ( 'NONE',  ( 0.000000000000000000, 0.000000000000000000, 1.000000000000000000 ) ) ;
#113 = CARTESIAN_POINT ( 'NONE',  ( 1.600000000000000089, 1.959434878635765230E-16, 3.199999999999980638 ) ) ;
#114 = DIRECTION ( 'NONE',  ( 0.000000000000000000, 0.000000000000000000, 1.000000000000000000 ) ) ;
#115 = CIRCLE ( 'NONE', #295, 1.600000000000000089 ) ;
#116 = CALENDAR_DATE ( 2022, 7, 7 ) ;
#117 = PRODUCT ( '5df0', '5df0', '', ( #166 ) ) ;
#118 = PERSON_AND_ORGANIZATION ( #58, #26 ) ;
#119 =( NAMED_UNIT ( * ) SI_UNIT ( $, .STERADIAN. ) SOLID_ANGLE_UNIT ( ) );
#120 = EDGE_CURVE ( 'NONE', #105, #244, #185, .T. ) ;
#121 = AXIS2_PLACEMENT_3D ( 'NONE', #296, #229, #35 ) ;
#122 = DATE_AND_TIME ( #116, #61 ) ;
#123 = LOCAL_TIME ( 14, 53, 32.00000000000000000, #25 ) ;
#124 = PERSON_AND_ORGANIZATION_ROLE ( 'creator' ) ;
#125 = ORIENTED_EDGE ( 'NONE', *, *, #2, .T. ) ;
#126 = CARTESIAN_POINT ( 'NONE',  ( 0.000000000000000000, 0.000000000000000000, 403.0000000000000000 ) ) ;
#127 = ORIENTED_EDGE ( 'NONE', *, *, #255, .T. ) ;
#128 = DIRECTION ( 'NONE',  ( -1.000000000000000000, 1.224646799147354686E-16, 0.000000000000000000 ) ) ;
#129 = APPROVAL_PERSON_ORGANIZATION ( #240, #218, #260 ) ;
#130 = VERTEX_POINT ( 'NONE', #149 ) ;
#131 = CARTESIAN_POINT ( 'NONE',  ( 3.000000000000000444, 3.673940397442060361E-16, 3.000000000000000000 ) ) ;
#132 = PRODUCT_DEFINITION ( 'NEZNÁMÝ', '', #88, #272 ) ;
#133 = VERTEX_POINT ( 'NONE', #63 ) ;
#134 = AXIS2_PLACEMENT_3D ( 'NONE', #275, #106, #8 ) ;
#135 = CARTESIAN_POINT ( 'NONE',  ( 0.000000000000000000, 0.000000000000000000, 3.199999999999980638 ) ) ;
#136 = DIRECTION ( 'NONE',  ( -1.000000000000000000, 0.000000000000000000, 0.000000000000000000 ) ) ;
#137 = DIRECTION ( 'NONE',  ( -0.000000000000000000, -0.000000000000000000, -1.000000000000000000 ) ) ;
#138 = DIRECTION ( 'NONE',  ( 1.000000000000000000, 0.000000000000000000, 0.000000000000000000 ) ) ;
#139 = MANIFOLD_SOLID_BREP ( 'Zaoblit1', #189 ) ;
#140 = CIRCLE ( 'NONE', #222, 1.600000000000000089 ) ;
#141 = DIRECTION ( 'NONE',  ( 0.000000000000000000, 0.000000000000000000, -1.000000000000000000 ) ) ;
#142 = CARTESIAN_POINT ( 'NONE',  ( 0.000000000000000000, 0.000000000000000000, 3.000000000000000000 ) ) ;
#143 = CALENDAR_DATE ( 2022, 7, 7 ) ;
#144 = SECURITY_CLASSIFICATION ( '', '', #265 ) ;
#145 = PERSON_AND_ORGANIZATION ( #58, #26 ) ;
#146 = AXIS2_PLACEMENT_3D ( 'NONE', #82, #225, #56 ) ;
#147 = CARTESIAN_POINT ( 'NONE',  ( -3.000000000000000444, 0.000000000000000000, 3.000000000000000000 ) ) ;
#148 = EDGE_LOOP ( 'NONE', ( #252, #125, #6, #156 ) ) ;
#149 = CARTESIAN_POINT ( 'NONE',  ( 1.600000000000000089, 1.959434878635765230E-16, 403.0000000000000000 ) ) ;
#150 = AXIS2_PLACEMENT_3D ( 'NONE', #62, #199, #300 ) ;
#151 = ORIENTED_EDGE ( 'NONE', *, *, #211, .T. ) ;
#152 = ORIENTED_EDGE ( 'NONE', *, *, #279, .T. ) ;
#153 = ORIENTED_EDGE ( 'NONE', *, *, #221, .F. ) ;
#154 = EDGE_CURVE ( 'NONE', #133, #43, #168, .T. ) ;
#155 = CYLINDRICAL_SURFACE ( 'NONE', #134, 3.000000000000000444 ) ;
#156 = ORIENTED_EDGE ( 'NONE', *, *, #305, .F. ) ;
#157 = DIRECTION ( 'NONE',  ( 0.000000000000000000, 0.000000000000000000, 1.000000000000000000 ) ) ;
#158 = CARTESIAN_POINT ( 'NONE',  ( -1.600000000000000089, 0.000000000000000000, 3.199999999999980638 ) ) ;
#159 = CARTESIAN_POINT ( 'NONE',  ( -3.000000000000000444, 0.000000000000000000, 0.000000000000000000 ) ) ;
#160 = FACE_OUTER_BOUND ( 'NONE', #36, .T. ) ;
#161 = FACE_OUTER_BOUND ( 'NONE', #148, .T. ) ;
#162 = VECTOR ( 'NONE', #207, 1000.000000000000000 ) ;
#163 = APPROVAL ( #1, 'NEURÈENÝ' ) ;
#164 = CARTESIAN_POINT ( 'NONE',  ( 0.000000000000000000, 0.000000000000000000, 3.000000000000000000 ) ) ;
#165 = APPLICATION_PROTOCOL_DEFINITION ( 'international standard', 'config_control_design', 1994, #54 ) ;
#166 = MECHANICAL_CONTEXT ( 'NONE', #4, 'mechanical' ) ;
#167 = PERSON_AND_ORGANIZATION ( #58, #26 ) ;
#168 = CIRCLE ( 'NONE', #290, 3.000000000000000444 ) ;
#169 = ORIENTED_EDGE ( 'NONE', *, *, #90, .T. ) ;
#170 = ORIENTED_EDGE ( 'NONE', *, *, #120, .T. ) ;
#171 = ORIENTED_EDGE ( 'NONE', *, *, #154, .F. ) ;
#172 = DIRECTION ( 'NONE',  ( 0.000000000000000000, 0.000000000000000000, 1.000000000000000000 ) ) ;
#173 = AXIS2_PLACEMENT_3D ( 'NONE', #135, #157, #15 ) ;
#174 = EDGE_CURVE ( 'NONE', #276, #292, #101, .T. ) ;
#175 = EDGE_LOOP ( 'NONE', ( #39, #12 ) ) ;
#176 = ORIENTED_EDGE ( 'NONE', *, *, #120, .F. ) ;
#177 = LINE ( 'NONE', #268, #109 ) ;
#178 = EDGE_LOOP ( 'NONE', ( #11, #84, #127, #169 ) ) ;
#179 = DIRECTION ( 'NONE',  ( -0.000000000000000000, -0.000000000000000000, -1.000000000000000000 ) ) ;
#180 = ADVANCED_FACE ( 'NONE', ( #223 ), #10, .T. ) ;
#181 = AXIS2_PLACEMENT_3D ( 'NONE', #111, #205, #141 ) ;
#182 = ADVANCED_BREP_SHAPE_REPRESENTATION ( '5df0', ( #139, #237 ), #286 ) ;
#183 = DIRECTION ( 'NONE',  ( -0.000000000000000000, -0.000000000000000000, -1.000000000000000000 ) ) ;
#184 = ADVANCED_FACE ( 'NONE', ( #206 ), #108, .F. ) ;
#185 = CIRCLE ( 'NONE', #304, 3.000000000000000444 ) ;
#186 = DIRECTION ( 'NONE',  ( -0.000000000000000000, -0.000000000000000000, -1.000000000000000000 ) ) ;
#187 = CARTESIAN_POINT ( 'NONE',  ( 0.000000000000000000, 0.000000000000000000, 3.000000000000000000 ) ) ;
#188 = DIRECTION ( 'NONE',  ( 0.000000000000000000, 0.000000000000000000, 1.000000000000000000 ) ) ;
#189 = CLOSED_SHELL ( 'NONE', ( #216, #261, #110, #232, #269, #184, #197, #180, #49 ) ) ;
#190 = CARTESIAN_POINT ( 'NONE',  ( 0.000000000000000000, 0.000000000000000000, 0.000000000000000000 ) ) ;
#191 = CALENDAR_DATE ( 2022, 7, 7 ) ;
#192 = EDGE_LOOP ( 'NONE', ( #249, #195 ) ) ;
#193 = TOROIDAL_SURFACE ( 'NONE', #44, 1.800000000000000266, 0.2000000000000000111 ) ;
#194 = DIRECTION ( 'NONE',  ( 1.000000000000000000, 0.000000000000000000, 0.000000000000000000 ) ) ;
#195 = ORIENTED_EDGE ( 'NONE', *, *, #221, .T. ) ;
#196 = ORIENTED_EDGE ( 'NONE', *, *, #279, .F. ) ;
#197 = ADVANCED_FACE ( 'NONE', ( #231 ), #258, .T. ) ;
#198 = ORIENTED_EDGE ( 'NONE', *, *, #255, .F. ) ;
#199 = DIRECTION ( 'NONE',  ( 0.000000000000000000, 0.000000000000000000, 1.000000000000000000 ) ) ;
#200 = CIRCLE ( 'NONE', #146, 3.000000000000000444 ) ;
#201 = AXIS2_PLACEMENT_3D ( 'NONE', #245, #37, #128 ) ;
#202 = CARTESIAN_POINT ( 'NONE',  ( 0.000000000000000000, 0.000000000000000000, 0.000000000000000000 ) ) ;
#203 = DIRECTION ( 'NONE',  ( -0.000000000000000000, -0.000000000000000000, -1.000000000000000000 ) ) ;
#204 = LINE ( 'NONE', #303, #162 ) ;
#205 = DIRECTION ( 'NONE',  ( 0.000000000000000000, -1.000000000000000000, 0.000000000000000000 ) ) ;
#206 = FACE_OUTER_BOUND ( 'NONE', #289, .T. ) ;
#207 = DIRECTION ( 'NONE',  ( -0.000000000000000000, -0.000000000000000000, -1.000000000000000000 ) ) ;
#208 = DIRECTION ( 'NONE',  ( -1.000000000000000000, 0.000000000000000000, 0.000000000000000000 ) ) ;
#209 = CIRCLE ( 'NONE', #266, 1.800000000000000266 ) ;
#210 = APPROVAL_DATE_TIME ( #122, #218 ) ;
#211 = EDGE_CURVE ( 'NONE', #43, #133, #38, .T. ) ;
#212 = PERSON_AND_ORGANIZATION ( #58, #26 ) ;
#213 = CALENDAR_DATE ( 2022, 7, 7 ) ;
#214 = APPROVAL_PERSON_ORGANIZATION ( #239, #72, #287 ) ;
#215 = PERSON_AND_ORGANIZATION_ROLE ( 'design_owner' ) ;
#216 = ADVANCED_FACE ( 'NONE', ( #160 ), #193, .F. ) ;
#217 = DATE_AND_TIME ( #213, #262 ) ;
#218 = APPROVAL ( #31, 'NEURÈENÝ' ) ;
#219 = VERTEX_POINT ( 'NONE', #113 ) ;
#220 = DIRECTION ( 'NONE',  ( 0.000000000000000000, 0.000000000000000000, 1.000000000000000000 ) ) ;
#221 = EDGE_CURVE ( 'NONE', #292, #250, #209, .T. ) ;
#222 = AXIS2_PLACEMENT_3D ( 'NONE', #302, #234, #22 ) ;
#223 = FACE_OUTER_BOUND ( 'NONE', #175, .T. ) ;
#224 = ORIENTED_EDGE ( 'NONE', *, *, #57, .F. ) ;
#225 = DIRECTION ( 'NONE',  ( 0.000000000000000000, 0.000000000000000000, 1.000000000000000000 ) ) ;
#226 = TOROIDAL_SURFACE ( 'NONE', #121, 1.800000000000000266, 0.2000000000000000111 ) ;
#227 = ORIENTED_EDGE ( 'NONE', *, *, #27, .T. ) ;
#228 = AXIS2_PLACEMENT_3D ( 'NONE', #91, #112, #68 ) ;
#229 = DIRECTION ( 'NONE',  ( 0.000000000000000000, 0.000000000000000000, 1.000000000000000000 ) ) ;
#230 = LINE ( 'NONE', #301, #93 ) ;
#231 = FACE_OUTER_BOUND ( 'NONE', #267, .T. ) ;
#232 = ADVANCED_FACE ( 'NONE', ( #18 ), #19, .T. ) ;
#233 = CARTESIAN_POINT ( 'NONE',  ( 1.800000000000000266, 0.000000000000000000, 2.999999999999990674 ) ) ;
#234 = DIRECTION ( 'NONE',  ( 0.000000000000000000, 0.000000000000000000, 1.000000000000000000 ) ) ;
#235 = CARTESIAN_POINT ( 'NONE',  ( -1.600000000000000089, 0.000000000000000000, 403.0000000000000000 ) ) ;
#236 = PERSON_AND_ORGANIZATION_ROLE ( 'classification_officer' ) ;
#237 = AXIS2_PLACEMENT_3D ( 'NONE', #190, #188, #307 ) ;
#238 = CC_DESIGN_PERSON_AND_ORGANIZATION_ASSIGNMENT ( #145, #70, ( #88 ) ) ;
#239 = PERSON_AND_ORGANIZATION ( #58, #26 ) ;
#240 = PERSON_AND_ORGANIZATION ( #58, #26 ) ;
#241 = CC_DESIGN_PERSON_AND_ORGANIZATION_ASSIGNMENT ( #242, #215, ( #117 ) ) ;
#242 = PERSON_AND_ORGANIZATION ( #58, #26 ) ;
#243 = VERTEX_POINT ( 'NONE', #235 ) ;
#244 = VERTEX_POINT ( 'NONE', #159 ) ;
#245 = CARTESIAN_POINT ( 'NONE',  ( -1.800000000000000266, 2.204364238465236069E-16, 3.199999999999980638 ) ) ;
#246 = ORIENTED_EDGE ( 'NONE', *, *, #2, .F. ) ;
#247 = PRODUCT_RELATED_PRODUCT_CATEGORY ( 'detail', '', ( #117 ) ) ;
#248 = AXIS2_PLACEMENT_3D ( 'NONE', #281, #259, #208 ) ;
#249 = ORIENTED_EDGE ( 'NONE', *, *, #297, .T. ) ;
#250 = VERTEX_POINT ( 'NONE', #233 ) ;
#251 = ORIENTED_EDGE ( 'NONE', *, *, #13, .F. ) ;
#252 = ORIENTED_EDGE ( 'NONE', *, *, #7, .F. ) ;
#253 = CIRCLE ( 'NONE', #97, 1.800000000000000266 ) ;
#254 = DIRECTION ( 'NONE',  ( 1.000000000000000000, 0.000000000000000000, 0.000000000000000000 ) ) ;
#255 = EDGE_CURVE ( 'NONE', #43, #244, #204, .T. ) ;
#256 = DIRECTION ( 'NONE',  ( -1.000000000000000000, 0.000000000000000000, 0.000000000000000000 ) ) ;
#257 = VECTOR ( 'NONE', #104, 1000.000000000000000 ) ;
#258 = CYLINDRICAL_SURFACE ( 'NONE', #32, 1.600000000000000089 ) ;
#259 = DIRECTION ( 'NONE',  ( -0.000000000000000000, -0.000000000000000000, -1.000000000000000000 ) ) ;
#260 = APPROVAL_ROLE ( '' ) ;
#261 = ADVANCED_FACE ( 'NONE', ( #161 ), #24, .T. ) ;
#262 = LOCAL_TIME ( 14, 53, 32.00000000000000000, #53 ) ;
#263 = DATE_AND_TIME ( #143, #298 ) ;
#264 = APPROVAL_DATE_TIME ( #263, #163 ) ;
#265 = SECURITY_CLASSIFICATION_LEVEL ( 'unclassified' ) ;
#266 = AXIS2_PLACEMENT_3D ( 'NONE', #280, #137, #138 ) ;
#267 = EDGE_LOOP ( 'NONE', ( #246, #224, #294, #17 ) ) ;
#268 = CARTESIAN_POINT ( 'NONE',  ( 1.600000000000000089, 1.959434878635765230E-16, 403.0000000000000000 ) ) ;
#269 = ADVANCED_FACE ( 'NONE', ( #50, #87 ), #306, .T. ) ;
#270 = PRODUCT_DEFINITION_SHAPE ( 'NONE', 'NONE',  #132 ) ;
#271 = DIRECTION ( 'NONE',  ( 1.000000000000000000, 0.000000000000000000, -0.000000000000000000 ) ) ;
#272 = DESIGN_CONTEXT ( 'detailed design', #54, 'design' ) ;
#273 = CARTESIAN_POINT ( 'NONE',  ( 3.000000000000000444, 3.673940397442060361E-16, 0.000000000000000000 ) ) ;
#274 = CC_DESIGN_DATE_AND_TIME_ASSIGNMENT ( #29, #5, ( #132 ) ) ;
#275 = CARTESIAN_POINT ( 'NONE',  ( 0.000000000000000000, 0.000000000000000000, 3.000000000000000000 ) ) ;
#276 = VERTEX_POINT ( 'NONE', #158 ) ;
#277 = CC_DESIGN_APPROVAL ( #163, ( #88 ) ) ;
#278 = CARTESIAN_POINT ( 'NONE',  ( 0.000000000000000000, 0.000000000000000000, 403.0000000000000000 ) ) ;
#279 = EDGE_CURVE ( 'NONE', #219, #250, #9, .T. ) ;
#280 = CARTESIAN_POINT ( 'NONE',  ( 0.000000000000000000, 0.000000000000000000, 3.000000000000000000 ) ) ;
#281 = CARTESIAN_POINT ( 'NONE',  ( 0.000000000000000000, 0.000000000000000000, 403.0000000000000000 ) ) ;
#282 = PERSON_AND_ORGANIZATION ( #58, #26 ) ;
#283 = DATE_AND_TIME ( #191, #65 ) ;
#284 = CIRCLE ( 'NONE', #173, 1.600000000000000089 ) ;
#285 = EDGE_CURVE ( 'NONE', #276, #219, #140, .T. ) ;
#286 =( GEOMETRIC_REPRESENTATION_CONTEXT ( 3 ) GLOBAL_UNCERTAINTY_ASSIGNED_CONTEXT ( ( #99 ) ) GLOBAL_UNIT_ASSIGNED_CONTEXT ( ( #89, #66, #119 ) ) REPRESENTATION_CONTEXT ( 'NONE', 'WORKASPACE' ) );
#287 = APPROVAL_ROLE ( '' ) ;
#288 = CALENDAR_DATE ( 2022, 7, 7 ) ;
#289 = EDGE_LOOP ( 'NONE', ( #41, #176 ) ) ;
#290 = AXIS2_PLACEMENT_3D ( 'NONE', #291, #59, #79 ) ;
#291 = CARTESIAN_POINT ( 'NONE',  ( 0.000000000000000000, 0.000000000000000000, 3.000000000000000000 ) ) ;
#292 = VERTEX_POINT ( 'NONE', #94 ) ;
#293 = FACE_OUTER_BOUND ( 'NONE', #107, .T. ) ;
#294 = ORIENTED_EDGE ( 'NONE', *, *, #305, .T. ) ;
#295 = AXIS2_PLACEMENT_3D ( 'NONE', #126, #220, #194 ) ;
#296 = CARTESIAN_POINT ( 'NONE',  ( 0.000000000000000000, 0.000000000000000000, 3.199999999999980638 ) ) ;
#297 = EDGE_CURVE ( 'NONE', #250, #292, #253, .T. ) ;
#298 = LOCAL_TIME ( 14, 53, 32.00000000000000000, #73 ) ;
#299 = FACE_OUTER_BOUND ( 'NONE', #78, .T. ) ;
#300 = DIRECTION ( 'NONE',  ( 1.000000000000000000, 0.000000000000000000, 0.000000000000000000 ) ) ;
#301 = CARTESIAN_POINT ( 'NONE',  ( -1.600000000000000089, 0.000000000000000000, 403.0000000000000000 ) ) ;
#302 = CARTESIAN_POINT ( 'NONE',  ( 0.000000000000000000, 0.000000000000000000, 3.199999999999980638 ) ) ;
#303 = CARTESIAN_POINT ( 'NONE',  ( -3.000000000000000444, 0.000000000000000000, 3.000000000000000000 ) ) ;
#304 = AXIS2_PLACEMENT_3D ( 'NONE', #202, #85, #102 ) ;
#305 = EDGE_CURVE ( 'NONE', #243, #276, #230, .T. ) ;
#306 = PLANE ( 'NONE',  #76 ) ;
#307 = DIRECTION ( 'NONE',  ( 1.000000000000000000, 0.000000000000000000, 0.000000000000000000 ) ) ;
ENDSEC;
END-ISO-10303-21;
