ISO-10303-21;
HEADER;
FILE_DESCRIPTION (( 'STEP AP203' ),
    '1' );
FILE_NAME ('0b97.STEP',
    '2022-07-07T12:33:26',
    ( '' ),
    ( '' ),
    'SwSTEP 2.0',
    'SolidWorks 2019',
    '' );
FILE_SCHEMA (( 'CONFIG_CONTROL_DESIGN' ));
ENDSEC;

DATA;
#1 = CYLINDRICAL_SURFACE ( 'NONE', #256, 7.000000000000000000 ) ;
#2 = ORIENTED_EDGE ( 'NONE', *, *, #79, .T. ) ;
#3 = EDGE_LOOP ( 'NONE', ( #21, #75, #162, #73 ) ) ;
#4 = AXIS2_PLACEMENT_3D ( 'NONE', #220, #270, #12 ) ;
#5 = CC_DESIGN_SECURITY_CLASSIFICATION ( #107, ( #139 ) ) ;
#6 = EDGE_LOOP ( 'NONE', ( #252, #280, #100, #265 ) ) ;
#7 = EDGE_CURVE ( 'NONE', #216, #281, #196, .T. ) ;
#8 = FACE_OUTER_BOUND ( 'NONE', #3, .T. ) ;
#9 = PERSON ( 'NEURÈENÝ', 'NEURÈENÝ', 'NEURÈENÝ', ('NEURÈENÝ'), ('NEURÈENÝ'), ('NEURÈENÝ') ) ;
#10 = ADVANCED_FACE ( 'NONE', ( #54 ), #258, .T. ) ;
#11 = CIRCLE ( 'NONE', #84, 4.299999999999998934 ) ;
#12 = DIRECTION ( 'NONE',  ( 1.000000000000000000, 0.000000000000000000, 0.000000000000000000 ) ) ;
#13 = APPLICATION_CONTEXT ( 'configuration controlled 3d designs of mechanical parts and assemblies' ) ;
#14 = FACE_OUTER_BOUND ( 'NONE', #135, .T. ) ;
#15 = DIRECTION ( 'NONE',  ( -0.000000000000000000, -0.000000000000000000, -1.000000000000000000 ) ) ;
#16 = DIRECTION ( 'NONE',  ( 0.000000000000000000, 0.000000000000000000, 1.000000000000000000 ) ) ;
#17 = APPROVAL_PERSON_ORGANIZATION ( #66, #44, #115 ) ;
#18 = EDGE_CURVE ( 'NONE', #255, #82, #173, .T. ) ;
#19 = PERSON_AND_ORGANIZATION ( #9, #85 ) ;
#20 = PERSON_AND_ORGANIZATION_ROLE ( 'design_supplier' ) ;
#21 = ORIENTED_EDGE ( 'NONE', *, *, #210, .F. ) ;
#22 = APPROVAL ( #116, 'NEURÈENÝ' ) ;
#23 = CALENDAR_DATE ( 2022, 7, 7 ) ;
#24 = APPROVAL_DATE_TIME ( #298, #22 ) ;
#25 = AXIS2_PLACEMENT_3D ( 'NONE', #129, #223, #88 ) ;
#26 = CARTESIAN_POINT ( 'NONE',  ( 4.299999999999998934, 0.000000000000000000, 5.199999999999996625 ) ) ;
#27 = CARTESIAN_POINT ( 'NONE',  ( 0.000000000000000000, 0.000000000000000000, 5.000000000000000000 ) ) ;
#28 = ADVANCED_FACE ( 'NONE', ( #237 ), #35, .F. ) ;
#29 = CARTESIAN_POINT ( 'NONE',  ( 0.000000000000000000, 0.000000000000000000, 130.0000000000000000 ) ) ;
#30 = CC_DESIGN_APPROVAL ( #303, ( #107 ) ) ;
#31 = EDGE_LOOP ( 'NONE', ( #241, #141, #278, #183 ) ) ;
#32 = DIRECTION ( 'NONE',  ( -0.000000000000000000, -0.000000000000000000, -1.000000000000000000 ) ) ;
#33 = EDGE_CURVE ( 'NONE', #243, #216, #218, .T. ) ;
#34 = DIRECTION ( 'NONE',  ( 1.000000000000000000, 0.000000000000000000, 0.000000000000000000 ) ) ;
#35 = TOROIDAL_SURFACE ( 'NONE', #212, 4.299999999999998934, 0.2000000000000000111 ) ;
#36 = DIRECTION ( 'NONE',  ( 1.000000000000000000, 0.000000000000000000, -0.000000000000000000 ) ) ;
#37 = CIRCLE ( 'NONE', #69, 7.000000000000000000 ) ;
#38 = DIRECTION ( 'NONE',  ( 1.000000000000000000, 0.000000000000000000, 0.000000000000000000 ) ) ;
#39 = CARTESIAN_POINT ( 'NONE',  ( 0.000000000000000000, 0.000000000000000000, 0.000000000000000000 ) ) ;
#40 = PERSON_AND_ORGANIZATION ( #9, #85 ) ;
#41 = VECTOR ( 'NONE', #32, 1000.000000000000000 ) ;
#42 = ORIENTED_EDGE ( 'NONE', *, *, #236, .T. ) ;
#43 = LOCAL_TIME ( 14, 33, 26.00000000000000000, #153 ) ;
#44 = APPROVAL ( #71, 'NEURÈENÝ' ) ;
#45 = MECHANICAL_CONTEXT ( 'NONE', #13, 'mechanical' ) ;
#46 = DATE_AND_TIME ( #228, #191 ) ;
#47 = ORIENTED_EDGE ( 'NONE', *, *, #33, .F. ) ;
#48 = AXIS2_PLACEMENT_3D ( 'NONE', #273, #146, #34 ) ;
#49 = LOCAL_TIME ( 14, 33, 26.00000000000000000, #182 ) ;
#50 = DIRECTION ( 'NONE',  ( 1.224646799147353207E-16, 1.000000000000000000, -0.000000000000000000 ) ) ;
#51 = ORIENTED_EDGE ( 'NONE', *, *, #260, .F. ) ;
#52 = AXIS2_PLACEMENT_3D ( 'NONE', #175, #202, #268 ) ;
#53 = CC_DESIGN_APPROVAL ( #22, ( #139 ) ) ;
#54 = FACE_OUTER_BOUND ( 'NONE', #283, .T. ) ;
#55 = ADVANCED_FACE ( 'NONE', ( #77 ), #81, .T. ) ;
#56 = ORIENTED_EDGE ( 'NONE', *, *, #205, .F. ) ;
#57 = ORIENTED_EDGE ( 'NONE', *, *, #186, .F. ) ;
#58 = LOCAL_TIME ( 14, 33, 26.00000000000000000, #72 ) ;
#59 = CARTESIAN_POINT ( 'NONE',  ( -7.000000000000000000, 0.000000000000000000, 5.000000000000000000 ) ) ;
#60 = FACE_BOUND ( 'NONE', #106, .T. ) ;
#61 = DIRECTION ( 'NONE',  ( -0.000000000000000000, -0.000000000000000000, -1.000000000000000000 ) ) ;
#62 = APPLICATION_CONTEXT ( 'configuration controlled 3d designs of mechanical parts and assemblies' ) ;
#63 = CIRCLE ( 'NONE', #272, 4.299999999999998934 ) ;
#64 = DIRECTION ( 'NONE',  ( 1.000000000000000000, 0.000000000000000000, 0.000000000000000000 ) ) ;
#65 = DIRECTION ( 'NONE',  ( -0.000000000000000000, -0.000000000000000000, -1.000000000000000000 ) ) ;
#66 = PERSON_AND_ORGANIZATION ( #9, #85 ) ;
#67 = AXIS2_PLACEMENT_3D ( 'NONE', #27, #263, #109 ) ;
#68 = EDGE_LOOP ( 'NONE', ( #47, #56, #98, #42 ) ) ;
#69 = AXIS2_PLACEMENT_3D ( 'NONE', #39, #130, #225 ) ;
#70 = EDGE_CURVE ( 'NONE', #302, #255, #140, .T. ) ;
#71 = APPROVAL_STATUS ( 'not_yet_approved' ) ;
#72 = COORDINATED_UNIVERSAL_TIME_OFFSET ( 1, 0, .AHEAD. ) ;
#73 = ORIENTED_EDGE ( 'NONE', *, *, #142, .F. ) ;
#74 = PERSON_AND_ORGANIZATION ( #9, #85 ) ;
#75 = ORIENTED_EDGE ( 'NONE', *, *, #186, .T. ) ;
#76 = ADVANCED_FACE ( 'NONE', ( #8 ), #1, .T. ) ;
#77 = FACE_OUTER_BOUND ( 'NONE', #185, .T. ) ;
#78 = DIRECTION ( 'NONE',  ( -1.000000000000000000, 1.224646799147353454E-16, 0.000000000000000000 ) ) ;
#79 = EDGE_CURVE ( 'NONE', #305, #229, #158, .T. ) ;
#80 = AXIS2_PLACEMENT_3D ( 'NONE', #219, #65, #166 ) ;
#81 = PLANE ( 'NONE',  #261 ) ;
#82 = VERTEX_POINT ( 'NONE', #137 ) ;
#83 = LINE ( 'NONE', #59, #247 ) ;
#84 = AXIS2_PLACEMENT_3D ( 'NONE', #112, #248, #150 ) ;
#85 = ORGANIZATION ( 'NEURÈENÝ', 'NEURÈENÝ', '' ) ;
#86 = AXIS2_PLACEMENT_3D ( 'NONE', #235, #132, #226 ) ;
#87 = CARTESIAN_POINT ( 'NONE',  ( 4.299999999999998934, 0.000000000000000000, 4.999999999999998224 ) ) ;
#88 = DIRECTION ( 'NONE',  ( 1.000000000000000000, 0.000000000000000000, 0.000000000000000000 ) ) ;
#89 = CARTESIAN_POINT ( 'NONE',  ( 0.000000000000000000, 0.000000000000000000, 5.199999999999996625 ) ) ;
#90 = AXIS2_PLACEMENT_3D ( 'NONE', #108, #192, #289 ) ;
#91 = CARTESIAN_POINT ( 'NONE',  ( -4.099999999999999645, 0.000000000000000000, 130.0000000000000000 ) ) ;
#92 = DATE_AND_TIME ( #117, #58 ) ;
#93 = CC_DESIGN_PERSON_AND_ORGANIZATION_ASSIGNMENT ( #251, #134, ( #139 ) ) ;
#94 = COORDINATED_UNIVERSAL_TIME_OFFSET ( 1, 0, .AHEAD. ) ;
#95 = EDGE_LOOP ( 'NONE', ( #208, #284, #209, #51 ) ) ;
#96 = AXIS2_PLACEMENT_3D ( 'NONE', #26, #217, #214 ) ;
#97 = APPROVAL_DATE_TIME ( #301, #303 ) ;
#98 = ORIENTED_EDGE ( 'NONE', *, *, #70, .T. ) ;
#99 = DATE_AND_TIME ( #274, #300 ) ;
#100 = ORIENTED_EDGE ( 'NONE', *, *, #147, .F. ) ;
#101 = ADVANCED_FACE ( 'NONE', ( #259 ), #201, .F. ) ;
#102 = ORIENTED_EDGE ( 'NONE', *, *, #307, .T. ) ;
#103 = DIRECTION ( 'NONE',  ( -0.000000000000000000, -0.000000000000000000, -1.000000000000000000 ) ) ;
#104 = ADVANCED_FACE ( 'NONE', ( #165 ), #120, .T. ) ;
#105 = ORIENTED_EDGE ( 'NONE', *, *, #260, .T. ) ;
#106 = EDGE_LOOP ( 'NONE', ( #299, #105 ) ) ;
#107 = SECURITY_CLASSIFICATION ( '', '', #254 ) ;
#108 = CARTESIAN_POINT ( 'NONE',  ( 0.000000000000000000, 0.000000000000000000, 5.000000000000000000 ) ) ;
#109 = DIRECTION ( 'NONE',  ( -1.000000000000000000, 0.000000000000000000, 0.000000000000000000 ) ) ;
#110 = CARTESIAN_POINT ( 'NONE',  ( 0.000000000000000000, 0.000000000000000000, 130.0000000000000000 ) ) ;
#111 = DIRECTION ( 'NONE',  ( 0.000000000000000000, 0.000000000000000000, 1.000000000000000000 ) ) ;
#112 = CARTESIAN_POINT ( 'NONE',  ( 0.000000000000000000, 0.000000000000000000, 5.000000000000000000 ) ) ;
#113 = PRODUCT ( '0b97', '0b97', '', ( #45 ) ) ;
#114 = CARTESIAN_POINT ( 'NONE',  ( 0.000000000000000000, 0.000000000000000000, 5.000000000000000000 ) ) ;
#115 = APPROVAL_ROLE ( '' ) ;
#116 = APPROVAL_STATUS ( 'not_yet_approved' ) ;
#117 = CALENDAR_DATE ( 2022, 7, 7 ) ;
#118 = ORIENTED_EDGE ( 'NONE', *, *, #79, .F. ) ;
#119 = DIRECTION ( 'NONE',  ( 0.000000000000000000, 0.000000000000000000, 1.000000000000000000 ) ) ;
#120 = CYLINDRICAL_SURFACE ( 'NONE', #80, 4.099999999999999645 ) ;
#121 = DIRECTION ( 'NONE',  ( 1.000000000000000000, 0.000000000000000000, 0.000000000000000000 ) ) ;
#122 = CARTESIAN_POINT ( 'NONE',  ( 0.000000000000000000, 0.000000000000000000, 5.000000000000000000 ) ) ;
#123 = CARTESIAN_POINT ( 'NONE',  ( 0.000000000000000000, 0.000000000000000000, 5.199999999999996625 ) ) ;
#124 = ADVANCED_FACE ( 'NONE', ( #60, #14 ), #246, .T. ) ;
#125 = DIRECTION ( 'NONE',  ( 1.000000000000000000, 0.000000000000000000, 0.000000000000000000 ) ) ;
#126 = CARTESIAN_POINT ( 'NONE',  ( 0.000000000000000000, 0.000000000000000000, 5.199999999999996625 ) ) ;
#127 = EDGE_CURVE ( 'NONE', #243, #302, #167, .T. ) ;
#128 = FACE_OUTER_BOUND ( 'NONE', #31, .T. ) ;
#129 = CARTESIAN_POINT ( 'NONE',  ( 0.000000000000000000, 0.000000000000000000, 130.0000000000000000 ) ) ;
#130 = DIRECTION ( 'NONE',  ( 0.000000000000000000, 0.000000000000000000, 1.000000000000000000 ) ) ;
#131 = CLOSED_SHELL ( 'NONE', ( #101, #224, #76, #10, #124, #194, #104, #55, #28 ) ) ;
#132 = DIRECTION ( 'NONE',  ( 0.000000000000000000, 0.000000000000000000, 1.000000000000000000 ) ) ;
#133 = COORDINATED_UNIVERSAL_TIME_OFFSET ( 1, 0, .AHEAD. ) ;
#134 = PERSON_AND_ORGANIZATION_ROLE ( 'creator' ) ;
#135 = EDGE_LOOP ( 'NONE', ( #2, #234 ) ) ;
#136 = CC_DESIGN_PERSON_AND_ORGANIZATION_ASSIGNMENT ( #74, #20, ( #139 ) ) ;
#137 = CARTESIAN_POINT ( 'NONE',  ( -4.299999999999998934, 5.265981236333617484E-16, 4.999999999999998224 ) ) ;
#138 = CIRCLE ( 'NONE', #149, 4.099999999999999645 ) ;
#139 = PRODUCT_DEFINITION_FORMATION_WITH_SPECIFIED_SOURCE ( 'LIBOVOLNÝ', '', #113, .NOT_KNOWN. ) ;
#140 = LINE ( 'NONE', #242, #271 ) ;
#141 = ORIENTED_EDGE ( 'NONE', *, *, #33, .T. ) ;
#142 = EDGE_CURVE ( 'NONE', #305, #231, #83, .T. ) ;
#143 = ORIENTED_EDGE ( 'NONE', *, *, #205, .T. ) ;
#144 = AXIS2_PLACEMENT_3D ( 'NONE', #193, #290, #239 ) ;
#145 = CARTESIAN_POINT ( 'NONE',  ( -4.099999999999999645, 0.000000000000000000, 5.199999999999996625 ) ) ;
#146 = DIRECTION ( 'NONE',  ( 0.000000000000000000, 0.000000000000000000, 1.000000000000000000 ) ) ;
#147 = EDGE_CURVE ( 'NONE', #281, #82, #11, .T. ) ;
#148 = CARTESIAN_POINT ( 'NONE',  ( 4.099999999999999645, 5.021051876504147385E-16, 5.199999999999996625 ) ) ;
#149 = AXIS2_PLACEMENT_3D ( 'NONE', #126, #111, #38 ) ;
#150 = DIRECTION ( 'NONE',  ( 1.000000000000000000, 0.000000000000000000, 0.000000000000000000 ) ) ;
#151 = CARTESIAN_POINT ( 'NONE',  ( 4.099999999999999645, 5.021051876504147385E-16, 130.0000000000000000 ) ) ;
#152 = CIRCLE ( 'NONE', #25, 4.099999999999999645 ) ;
#153 = COORDINATED_UNIVERSAL_TIME_OFFSET ( 1, 0, .AHEAD. ) ;
#154 = APPROVAL_DATE_TIME ( #92, #44 ) ;
#155 = EDGE_CURVE ( 'NONE', #216, #255, #138, .T. ) ;
#156 = VERTEX_POINT ( 'NONE', #245 ) ;
#157 = CALENDAR_DATE ( 2022, 7, 7 ) ;
#158 = CIRCLE ( 'NONE', #90, 7.000000000000000000 ) ;
#159 = ORIENTED_EDGE ( 'NONE', *, *, #142, .T. ) ;
#160 =( GEOMETRIC_REPRESENTATION_CONTEXT ( 3 ) GLOBAL_UNCERTAINTY_ASSIGNED_CONTEXT ( ( #172 ) ) GLOBAL_UNIT_ASSIGNED_CONTEXT ( ( #195, #181, #304 ) ) REPRESENTATION_CONTEXT ( 'NONE', 'WORKASPACE' ) );
#161 = ORIENTED_EDGE ( 'NONE', *, *, #127, .T. ) ;
#162 = ORIENTED_EDGE ( 'NONE', *, *, #269, .T. ) ;
#163 = APPROVAL_PERSON_ORGANIZATION ( #279, #303, #230 ) ;
#164 = DIRECTION ( 'NONE',  ( 0.000000000000000000, 0.000000000000000000, 1.000000000000000000 ) ) ;
#165 = FACE_OUTER_BOUND ( 'NONE', #68, .T. ) ;
#166 = DIRECTION ( 'NONE',  ( -1.000000000000000000, 0.000000000000000000, 0.000000000000000000 ) ) ;
#167 = CIRCLE ( 'NONE', #4, 4.099999999999999645 ) ;
#168 = CYLINDRICAL_SURFACE ( 'NONE', #262, 4.099999999999999645 ) ;
#169 = CC_DESIGN_DATE_AND_TIME_ASSIGNMENT ( #99, #204, ( #250 ) ) ;
#170 = PLANE ( 'NONE',  #211 ) ;
#171 = DIRECTION ( 'NONE',  ( 0.000000000000000000, 0.000000000000000000, 1.000000000000000000 ) ) ;
#172 = UNCERTAINTY_MEASURE_WITH_UNIT (LENGTH_MEASURE( 1.000000000000000082E-05 ), #195, 'distance_accuracy_value', 'NONE');
#173 = CIRCLE ( 'NONE', #296, 0.1999999999999996503 ) ;
#174 = CIRCLE ( 'NONE', #48, 7.000000000000000000 ) ;
#175 = CARTESIAN_POINT ( 'NONE',  ( 0.000000000000000000, 0.000000000000000000, 5.000000000000000000 ) ) ;
#176 = PRODUCT_RELATED_PRODUCT_CATEGORY ( 'detail', '', ( #113 ) ) ;
#177 = APPLICATION_PROTOCOL_DEFINITION ( 'international standard', 'config_control_design', 1994, #62 ) ;
#178 = PERSON_AND_ORGANIZATION ( #9, #85 ) ;
#179 = ORIENTED_EDGE ( 'NONE', *, *, #307, .F. ) ;
#180 = CIRCLE ( 'NONE', #52, 7.000000000000000000 ) ;
#181 =( NAMED_UNIT ( * ) PLANE_ANGLE_UNIT ( ) SI_UNIT ( $, .RADIAN. ) );
#182 = COORDINATED_UNIVERSAL_TIME_OFFSET ( 1, 0, .AHEAD. ) ;
#183 = ORIENTED_EDGE ( 'NONE', *, *, #70, .F. ) ;
#184 = APPROVAL_STATUS ( 'not_yet_approved' ) ;
#185 = EDGE_LOOP ( 'NONE', ( #143, #161 ) ) ;
#186 = EDGE_CURVE ( 'NONE', #229, #156, #266, .T. ) ;
#187 = EDGE_LOOP ( 'NONE', ( #179, #297 ) ) ;
#188 = DIRECTION ( 'NONE',  ( -1.000000000000000000, 0.000000000000000000, 0.000000000000000000 ) ) ;
#189 = DIRECTION ( 'NONE',  ( -0.000000000000000000, -0.000000000000000000, -1.000000000000000000 ) ) ;
#190 = CARTESIAN_POINT ( 'NONE',  ( 4.099999999999999645, 5.021051876504147385E-16, 130.0000000000000000 ) ) ;
#191 = LOCAL_TIME ( 14, 33, 26.00000000000000000, #133 ) ;
#192 = DIRECTION ( 'NONE',  ( 0.000000000000000000, 0.000000000000000000, 1.000000000000000000 ) ) ;
#193 = CARTESIAN_POINT ( 'NONE',  ( 0.000000000000000000, 0.000000000000000000, 5.199999999999996625 ) ) ;
#194 = ADVANCED_FACE ( 'NONE', ( #222 ), #170, .F. ) ;
#195 =( LENGTH_UNIT ( ) NAMED_UNIT ( * ) SI_UNIT ( .MILLI., .METRE. ) );
#196 = CIRCLE ( 'NONE', #96, 0.1999999999999996503 ) ;
#197 = CARTESIAN_POINT ( 'NONE',  ( 7.000000000000000000, 8.572527594031473190E-16, 5.000000000000000000 ) ) ;
#198 = DIRECTION ( 'NONE',  ( -1.000000000000000000, 0.000000000000000000, 0.000000000000000000 ) ) ;
#199 = PRODUCT_DEFINITION_SHAPE ( 'NONE', 'NONE',  #250 ) ;
#200 = DIRECTION ( 'NONE',  ( -0.000000000000000000, -0.000000000000000000, -1.000000000000000000 ) ) ;
#201 = TOROIDAL_SURFACE ( 'NONE', #144, 4.299999999999998934, 0.2000000000000000111 ) ;
#202 = DIRECTION ( 'NONE',  ( 0.000000000000000000, 0.000000000000000000, 1.000000000000000000 ) ) ;
#203 = ADVANCED_BREP_SHAPE_REPRESENTATION ( '0b97', ( #288, #86 ), #160 ) ;
#204 = DATE_TIME_ROLE ( 'creation_date' ) ;
#205 = EDGE_CURVE ( 'NONE', #302, #243, #152, .T. ) ;
#206 = DATE_TIME_ROLE ( 'classification_date' ) ;
#207 = PERSON_AND_ORGANIZATION_ROLE ( 'design_owner' ) ;
#208 = ORIENTED_EDGE ( 'NONE', *, *, #18, .F. ) ;
#209 = ORIENTED_EDGE ( 'NONE', *, *, #7, .T. ) ;
#210 = EDGE_CURVE ( 'NONE', #229, #305, #180, .T. ) ;
#211 = AXIS2_PLACEMENT_3D ( 'NONE', #295, #267, #292 ) ;
#212 = AXIS2_PLACEMENT_3D ( 'NONE', #123, #119, #121 ) ;
#213 = DIRECTION ( 'NONE',  ( -0.000000000000000000, -0.000000000000000000, -1.000000000000000000 ) ) ;
#214 = DIRECTION ( 'NONE',  ( 0.000000000000000000, 0.000000000000000000, -1.000000000000000000 ) ) ;
#215 = CC_DESIGN_PERSON_AND_ORGANIZATION_ASSIGNMENT ( #40, #207, ( #113 ) ) ;
#216 = VERTEX_POINT ( 'NONE', #148 ) ;
#217 = DIRECTION ( 'NONE',  ( 0.000000000000000000, -1.000000000000000000, 0.000000000000000000 ) ) ;
#218 = LINE ( 'NONE', #190, #232 ) ;
#219 = CARTESIAN_POINT ( 'NONE',  ( 0.000000000000000000, 0.000000000000000000, 130.0000000000000000 ) ) ;
#220 = CARTESIAN_POINT ( 'NONE',  ( 0.000000000000000000, 0.000000000000000000, 130.0000000000000000 ) ) ;
#221 = CIRCLE ( 'NONE', #285, 4.099999999999999645 ) ;
#222 = FACE_OUTER_BOUND ( 'NONE', #187, .T. ) ;
#223 = DIRECTION ( 'NONE',  ( 0.000000000000000000, 0.000000000000000000, 1.000000000000000000 ) ) ;
#224 = ADVANCED_FACE ( 'NONE', ( #128 ), #168, .T. ) ;
#225 = DIRECTION ( 'NONE',  ( 1.000000000000000000, 0.000000000000000000, 0.000000000000000000 ) ) ;
#226 = DIRECTION ( 'NONE',  ( 1.000000000000000000, 0.000000000000000000, 0.000000000000000000 ) ) ;
#227 = CC_DESIGN_PERSON_AND_ORGANIZATION_ASSIGNMENT ( #257, #253, ( #107 ) ) ;
#228 = CALENDAR_DATE ( 2022, 7, 7 ) ;
#229 = VERTEX_POINT ( 'NONE', #244 ) ;
#230 = APPROVAL_ROLE ( '' ) ;
#231 = VERTEX_POINT ( 'NONE', #294 ) ;
#232 = VECTOR ( 'NONE', #213, 1000.000000000000000 ) ;
#233 = PERSON_AND_ORGANIZATION_ROLE ( 'creator' ) ;
#234 = ORIENTED_EDGE ( 'NONE', *, *, #210, .T. ) ;
#235 = CARTESIAN_POINT ( 'NONE',  ( 0.000000000000000000, 0.000000000000000000, 0.000000000000000000 ) ) ;
#236 = EDGE_CURVE ( 'NONE', #255, #216, #221, .T. ) ;
#237 = FACE_OUTER_BOUND ( 'NONE', #95, .T. ) ;
#238 = CC_DESIGN_APPROVAL ( #44, ( #250 ) ) ;
#239 = DIRECTION ( 'NONE',  ( 1.000000000000000000, 0.000000000000000000, 0.000000000000000000 ) ) ;
#240 = CC_DESIGN_DATE_AND_TIME_ASSIGNMENT ( #46, #206, ( #107 ) ) ;
#241 = ORIENTED_EDGE ( 'NONE', *, *, #127, .F. ) ;
#242 = CARTESIAN_POINT ( 'NONE',  ( -4.099999999999999645, 0.000000000000000000, 130.0000000000000000 ) ) ;
#243 = VERTEX_POINT ( 'NONE', #151 ) ;
#244 = CARTESIAN_POINT ( 'NONE',  ( 7.000000000000000000, 8.572527594031473190E-16, 5.000000000000000000 ) ) ;
#245 = CARTESIAN_POINT ( 'NONE',  ( 7.000000000000000000, 8.572527594031473190E-16, 0.000000000000000000 ) ) ;
#246 = PLANE ( 'NONE',  #306 ) ;
#247 = VECTOR ( 'NONE', #61, 1000.000000000000000 ) ;
#248 = DIRECTION ( 'NONE',  ( -0.000000000000000000, -0.000000000000000000, -1.000000000000000000 ) ) ;
#249 = CARTESIAN_POINT ( 'NONE',  ( -7.000000000000000000, 0.000000000000000000, 5.000000000000000000 ) ) ;
#250 = PRODUCT_DEFINITION ( 'NEZNÁMÝ', '', #139, #291 ) ;
#251 = PERSON_AND_ORGANIZATION ( #9, #85 ) ;
#252 = ORIENTED_EDGE ( 'NONE', *, *, #236, .F. ) ;
#253 = PERSON_AND_ORGANIZATION_ROLE ( 'classification_officer' ) ;
#254 = SECURITY_CLASSIFICATION_LEVEL ( 'unclassified' ) ;
#255 = VERTEX_POINT ( 'NONE', #145 ) ;
#256 = AXIS2_PLACEMENT_3D ( 'NONE', #122, #103, #188 ) ;
#257 = PERSON_AND_ORGANIZATION ( #9, #85 ) ;
#258 = CYLINDRICAL_SURFACE ( 'NONE', #67, 7.000000000000000000 ) ;
#259 = FACE_OUTER_BOUND ( 'NONE', #6, .T. ) ;
#260 = EDGE_CURVE ( 'NONE', #82, #281, #63, .T. ) ;
#261 = AXIS2_PLACEMENT_3D ( 'NONE', #29, #164, #264 ) ;
#262 = AXIS2_PLACEMENT_3D ( 'NONE', #110, #15, #198 ) ;
#263 = DIRECTION ( 'NONE',  ( -0.000000000000000000, -0.000000000000000000, -1.000000000000000000 ) ) ;
#264 = DIRECTION ( 'NONE',  ( 1.000000000000000000, 0.000000000000000000, -0.000000000000000000 ) ) ;
#265 = ORIENTED_EDGE ( 'NONE', *, *, #7, .F. ) ;
#266 = LINE ( 'NONE', #197, #41 ) ;
#267 = DIRECTION ( 'NONE',  ( 0.000000000000000000, 0.000000000000000000, 1.000000000000000000 ) ) ;
#268 = DIRECTION ( 'NONE',  ( 1.000000000000000000, 0.000000000000000000, 0.000000000000000000 ) ) ;
#269 = EDGE_CURVE ( 'NONE', #156, #231, #174, .T. ) ;
#270 = DIRECTION ( 'NONE',  ( 0.000000000000000000, 0.000000000000000000, 1.000000000000000000 ) ) ;
#271 = VECTOR ( 'NONE', #189, 1000.000000000000000 ) ;
#272 = AXIS2_PLACEMENT_3D ( 'NONE', #114, #200, #125 ) ;
#273 = CARTESIAN_POINT ( 'NONE',  ( 0.000000000000000000, 0.000000000000000000, 0.000000000000000000 ) ) ;
#274 = CALENDAR_DATE ( 2022, 7, 7 ) ;
#275 = APPROVAL_ROLE ( '' ) ;
#276 = APPLICATION_PROTOCOL_DEFINITION ( 'international standard', 'config_control_design', 1994, #13 ) ;
#277 = SHAPE_DEFINITION_REPRESENTATION ( #199, #203 ) ;
#278 = ORIENTED_EDGE ( 'NONE', *, *, #155, .T. ) ;
#279 = PERSON_AND_ORGANIZATION ( #9, #85 ) ;
#280 = ORIENTED_EDGE ( 'NONE', *, *, #18, .T. ) ;
#281 = VERTEX_POINT ( 'NONE', #87 ) ;
#282 = CC_DESIGN_PERSON_AND_ORGANIZATION_ASSIGNMENT ( #19, #233, ( #250 ) ) ;
#283 = EDGE_LOOP ( 'NONE', ( #57, #118, #159, #102 ) ) ;
#284 = ORIENTED_EDGE ( 'NONE', *, *, #155, .F. ) ;
#285 = AXIS2_PLACEMENT_3D ( 'NONE', #89, #171, #64 ) ;
#286 = APPROVAL_PERSON_ORGANIZATION ( #178, #22, #275 ) ;
#287 = CARTESIAN_POINT ( 'NONE',  ( -4.299999999999998934, 5.265981236333617484E-16, 5.199999999999996625 ) ) ;
#288 = MANIFOLD_SOLID_BREP ( 'Zaoblit1', #131 ) ;
#289 = DIRECTION ( 'NONE',  ( 1.000000000000000000, 0.000000000000000000, 0.000000000000000000 ) ) ;
#290 = DIRECTION ( 'NONE',  ( 0.000000000000000000, 0.000000000000000000, 1.000000000000000000 ) ) ;
#291 = DESIGN_CONTEXT ( 'detailed design', #62, 'design' ) ;
#292 = DIRECTION ( 'NONE',  ( 1.000000000000000000, 0.000000000000000000, -0.000000000000000000 ) ) ;
#293 = CARTESIAN_POINT ( 'NONE',  ( 0.000000000000000000, 0.000000000000000000, 5.000000000000000000 ) ) ;
#294 = CARTESIAN_POINT ( 'NONE',  ( -7.000000000000000000, 0.000000000000000000, 0.000000000000000000 ) ) ;
#295 = CARTESIAN_POINT ( 'NONE',  ( 0.000000000000000000, 0.000000000000000000, 0.000000000000000000 ) ) ;
#296 = AXIS2_PLACEMENT_3D ( 'NONE', #287, #50, #78 ) ;
#297 = ORIENTED_EDGE ( 'NONE', *, *, #269, .F. ) ;
#298 = DATE_AND_TIME ( #157, #43 ) ;
#299 = ORIENTED_EDGE ( 'NONE', *, *, #147, .T. ) ;
#300 = LOCAL_TIME ( 14, 33, 26.00000000000000000, #94 ) ;
#301 = DATE_AND_TIME ( #23, #49 ) ;
#302 = VERTEX_POINT ( 'NONE', #91 ) ;
#303 = APPROVAL ( #184, 'NEURÈENÝ' ) ;
#304 =( NAMED_UNIT ( * ) SI_UNIT ( $, .STERADIAN. ) SOLID_ANGLE_UNIT ( ) );
#305 = VERTEX_POINT ( 'NONE', #249 ) ;
#306 = AXIS2_PLACEMENT_3D ( 'NONE', #293, #16, #36 ) ;
#307 = EDGE_CURVE ( 'NONE', #231, #156, #37, .T. ) ;
ENDSEC;
END-ISO-10303-21;
