ISO-10303-21;
HEADER;
FILE_DESCRIPTION (( 'STEP AP203' ),
    '1' );
FILE_NAME ('6ac7.STEP',
    '2022-07-07T12:30:56',
    ( '' ),
    ( '' ),
    'SwSTEP 2.0',
    'SolidWorks 2019',
    '' );
FILE_SCHEMA (( 'CONFIG_CONTROL_DESIGN' ));
ENDSEC;

DATA;
#1 = CARTESIAN_POINT ( 'NONE',  ( 0.000000000000000000, 0.000000000000000000, 5.000000000000000000 ) ) ;
#2 = ADVANCED_FACE ( 'NONE', ( #256 ), #233, .F. ) ;
#3 = CARTESIAN_POINT ( 'NONE',  ( 0.000000000000000000, 0.000000000000000000, 5.000000000000000000 ) ) ;
#4 = DIRECTION ( 'NONE',  ( 1.000000000000000000, 0.000000000000000000, 0.000000000000000000 ) ) ;
#5 = EDGE_CURVE ( 'NONE', #180, #230, #273, .T. ) ;
#6 = DIRECTION ( 'NONE',  ( 1.000000000000000000, 0.000000000000000000, 0.000000000000000000 ) ) ;
#7 = PERSON_AND_ORGANIZATION_ROLE ( 'creator' ) ;
#8 = EDGE_CURVE ( 'NONE', #155, #211, #186, .T. ) ;
#9 = DATE_AND_TIME ( #221, #85 ) ;
#10 = APPLICATION_PROTOCOL_DEFINITION ( 'international standard', 'config_control_design', 1994, #120 ) ;
#11 = EDGE_CURVE ( 'NONE', #125, #230, #67, .T. ) ;
#12 = CIRCLE ( 'NONE', #292, 4.250000000000000000 ) ;
#13 = CIRCLE ( 'NONE', #135, 7.000000000000000000 ) ;
#14 = ORIENTED_EDGE ( 'NONE', *, *, #218, .F. ) ;
#15 = CARTESIAN_POINT ( 'NONE',  ( -7.000000000000000000, 0.000000000000000000, 5.000000000000000000 ) ) ;
#16 = ORIENTED_EDGE ( 'NONE', *, *, #227, .T. ) ;
#17 = PERSON ( 'NEURÈENÝ', 'NEURÈENÝ', 'NEURÈENÝ', ('NEURÈENÝ'), ('NEURÈENÝ'), ('NEURÈENÝ') ) ;
#18 = DIRECTION ( 'NONE',  ( -0.000000000000000000, -0.000000000000000000, -1.000000000000000000 ) ) ;
#19 = CARTESIAN_POINT ( 'NONE',  ( 0.000000000000000000, 0.000000000000000000, 5.000000000000000000 ) ) ;
#20 = AXIS2_PLACEMENT_3D ( 'NONE', #288, #215, #6 ) ;
#21 = ADVANCED_FACE ( 'NONE', ( #110 ), #92, .T. ) ;
#22 = ORIENTED_EDGE ( 'NONE', *, *, #77, .T. ) ;
#23 = DIRECTION ( 'NONE',  ( 1.000000000000000000, 0.000000000000000000, 0.000000000000000000 ) ) ;
#24 = CARTESIAN_POINT ( 'NONE',  ( -4.450000000000000178, 5.449678256205721784E-16, 5.199999999999982414 ) ) ;
#25 = CIRCLE ( 'NONE', #248, 4.450000000000000178 ) ;
#26 = SECURITY_CLASSIFICATION ( '', '', #33 ) ;
#27 = DIRECTION ( 'NONE',  ( 0.000000000000000000, 0.000000000000000000, 1.000000000000000000 ) ) ;
#28 = DIRECTION ( 'NONE',  ( -0.000000000000000000, -0.000000000000000000, -1.000000000000000000 ) ) ;
#29 = AXIS2_PLACEMENT_3D ( 'NONE', #24, #210, #305 ) ;
#30 = CARTESIAN_POINT ( 'NONE',  ( 7.000000000000000000, 8.572527594031473190E-16, 0.000000000000000000 ) ) ;
#31 = VECTOR ( 'NONE', #269, 1000.000000000000000 ) ;
#32 = PERSON_AND_ORGANIZATION ( #17, #81 ) ;
#33 = SECURITY_CLASSIFICATION_LEVEL ( 'unclassified' ) ;
#34 = CARTESIAN_POINT ( 'NONE',  ( 0.000000000000000000, 0.000000000000000000, 0.000000000000000000 ) ) ;
#35 = CC_DESIGN_APPROVAL ( #201, ( #46 ) ) ;
#36 = CALENDAR_DATE ( 2022, 7, 7 ) ;
#37 = PERSON_AND_ORGANIZATION_ROLE ( 'creator' ) ;
#38 = EDGE_LOOP ( 'NONE', ( #306, #44, #303, #61 ) ) ;
#39 = VERTEX_POINT ( 'NONE', #136 ) ;
#40 = CIRCLE ( 'NONE', #160, 7.000000000000000000 ) ;
#41 = LINE ( 'NONE', #179, #107 ) ;
#42 = ORIENTED_EDGE ( 'NONE', *, *, #143, .T. ) ;
#43 = DIRECTION ( 'NONE',  ( -0.000000000000000000, -0.000000000000000000, -1.000000000000000000 ) ) ;
#44 = ORIENTED_EDGE ( 'NONE', *, *, #227, .F. ) ;
#45 = CARTESIAN_POINT ( 'NONE',  ( 0.000000000000000000, 0.000000000000000000, 5.000000000000000000 ) ) ;
#46 = PRODUCT_DEFINITION_FORMATION_WITH_SPECIFIED_SOURCE ( 'LIBOVOLNÝ', '', #237, .NOT_KNOWN. ) ;
#47 = CARTESIAN_POINT ( 'NONE',  ( 0.000000000000000000, 0.000000000000000000, 5.000000000000000000 ) ) ;
#48 = CC_DESIGN_DATE_AND_TIME_ASSIGNMENT ( #83, #296, ( #26 ) ) ;
#49 = CARTESIAN_POINT ( 'NONE',  ( 0.000000000000000000, 0.000000000000000000, 320.0000000000000000 ) ) ;
#50 = AXIS2_PLACEMENT_3D ( 'NONE', #277, #307, #89 ) ;
#51 = CARTESIAN_POINT ( 'NONE',  ( 0.000000000000000000, 0.000000000000000000, 320.0000000000000000 ) ) ;
#52 = APPROVAL_PERSON_ORGANIZATION ( #82, #70, #199 ) ;
#53 = FACE_OUTER_BOUND ( 'NONE', #68, .T. ) ;
#54 = DIRECTION ( 'NONE',  ( 0.000000000000000000, 0.000000000000000000, 1.000000000000000000 ) ) ;
#55 = AXIS2_PLACEMENT_3D ( 'NONE', #212, #206, #262 ) ;
#56 = DIRECTION ( 'NONE',  ( 0.000000000000000000, 0.000000000000000000, 1.000000000000000000 ) ) ;
#57 = APPROVAL_DATE_TIME ( #62, #201 ) ;
#58 = DESIGN_CONTEXT ( 'detailed design', #220, 'design' ) ;
#59 = APPLICATION_PROTOCOL_DEFINITION ( 'international standard', 'config_control_design', 1994, #220 ) ;
#60 = PRODUCT_DEFINITION ( 'NEZNÁMÝ', '', #46, #58 ) ;
#61 = ORIENTED_EDGE ( 'NONE', *, *, #162, .F. ) ;
#62 = DATE_AND_TIME ( #228, #152 ) ;
#63 = CARTESIAN_POINT ( 'NONE',  ( 4.250000000000000000, 5.204748896376250699E-16, 5.199999999999982414 ) ) ;
#64 = LINE ( 'NONE', #255, #126 ) ;
#65 = ORIENTED_EDGE ( 'NONE', *, *, #77, .F. ) ;
#66 = ORIENTED_EDGE ( 'NONE', *, *, #246, .F. ) ;
#67 = CIRCLE ( 'NONE', #29, 0.1999999999999996503 ) ;
#68 = EDGE_LOOP ( 'NONE', ( #65, #282, #16, #93 ) ) ;
#69 = DIRECTION ( 'NONE',  ( 0.000000000000000000, 0.000000000000000000, 1.000000000000000000 ) ) ;
#70 = APPROVAL ( #226, 'NEURÈENÝ' ) ;
#71 = AXIS2_PLACEMENT_3D ( 'NONE', #3, #28, #98 ) ;
#72 =( LENGTH_UNIT ( ) NAMED_UNIT ( * ) SI_UNIT ( .MILLI., .METRE. ) );
#73 = CYLINDRICAL_SURFACE ( 'NONE', #96, 4.250000000000000000 ) ;
#74 = AXIS2_PLACEMENT_3D ( 'NONE', #47, #279, #236 ) ;
#75 = DIRECTION ( 'NONE',  ( -1.000000000000000000, 0.000000000000000000, 0.000000000000000000 ) ) ;
#76 = CC_DESIGN_SECURITY_CLASSIFICATION ( #26, ( #46 ) ) ;
#77 = EDGE_CURVE ( 'NONE', #151, #39, #207, .T. ) ;
#78 = DIRECTION ( 'NONE',  ( 0.000000000000000000, 0.000000000000000000, 1.000000000000000000 ) ) ;
#79 = CYLINDRICAL_SURFACE ( 'NONE', #225, 7.000000000000000000 ) ;
#80 = CC_DESIGN_PERSON_AND_ORGANIZATION_ASSIGNMENT ( #121, #37, ( #46 ) ) ;
#81 = ORGANIZATION ( 'NEURÈENÝ', 'NEURÈENÝ', '' ) ;
#82 = PERSON_AND_ORGANIZATION ( #17, #81 ) ;
#83 = DATE_AND_TIME ( #36, #198 ) ;
#84 = ORIENTED_EDGE ( 'NONE', *, *, #281, .F. ) ;
#85 = LOCAL_TIME ( 14, 30, 56.00000000000000000, #276 ) ;
#86 = ORIENTED_EDGE ( 'NONE', *, *, #295, .F. ) ;
#87 = ORIENTED_EDGE ( 'NONE', *, *, #8, .F. ) ;
#88 = ORIENTED_EDGE ( 'NONE', *, *, #238, .T. ) ;
#89 = DIRECTION ( 'NONE',  ( 1.000000000000000000, 0.000000000000000000, -0.000000000000000000 ) ) ;
#90 = LOCAL_TIME ( 14, 30, 56.00000000000000000, #249 ) ;
#91 = EDGE_LOOP ( 'NONE', ( #134, #257 ) ) ;
#92 = CYLINDRICAL_SURFACE ( 'NONE', #178, 4.250000000000000000 ) ;
#93 = ORIENTED_EDGE ( 'NONE', *, *, #143, .F. ) ;
#94 = CC_DESIGN_PERSON_AND_ORGANIZATION_ASSIGNMENT ( #196, #291, ( #26 ) ) ;
#95 = DIRECTION ( 'NONE',  ( -0.000000000000000000, -0.000000000000000000, -1.000000000000000000 ) ) ;
#96 = AXIS2_PLACEMENT_3D ( 'NONE', #49, #102, #75 ) ;
#97 = DIRECTION ( 'NONE',  ( -0.000000000000000000, -0.000000000000000000, -1.000000000000000000 ) ) ;
#98 = DIRECTION ( 'NONE',  ( -1.000000000000000000, 0.000000000000000000, 0.000000000000000000 ) ) ;
#99 = AXIS2_PLACEMENT_3D ( 'NONE', #115, #69, #23 ) ;
#100 = ADVANCED_FACE ( 'NONE', ( #280 ), #234, .T. ) ;
#101 = CARTESIAN_POINT ( 'NONE',  ( 0.000000000000000000, 0.000000000000000000, 5.199999999999982414 ) ) ;
#102 = DIRECTION ( 'NONE',  ( -0.000000000000000000, -0.000000000000000000, -1.000000000000000000 ) ) ;
#103 = COORDINATED_UNIVERSAL_TIME_OFFSET ( 1, 0, .AHEAD. ) ;
#104 = CC_DESIGN_PERSON_AND_ORGANIZATION_ASSIGNMENT ( #32, #272, ( #46 ) ) ;
#105 = UNCERTAINTY_MEASURE_WITH_UNIT (LENGTH_MEASURE( 1.000000000000000082E-05 ), #72, 'distance_accuracy_value', 'NONE');
#106 = PERSON_AND_ORGANIZATION ( #17, #81 ) ;
#107 = VECTOR ( 'NONE', #18, 1000.000000000000000 ) ;
#108 = CIRCLE ( 'NONE', #203, 4.250000000000000000 ) ;
#109 = ORIENTED_EDGE ( 'NONE', *, *, #281, .T. ) ;
#110 = FACE_OUTER_BOUND ( 'NONE', #252, .T. ) ;
#111 = CLOSED_SHELL ( 'NONE', ( #2, #189, #209, #250, #124, #175, #21, #100, #304 ) ) ;
#112 = CARTESIAN_POINT ( 'NONE',  ( 7.000000000000000000, 8.572527594031473190E-16, 5.000000000000000000 ) ) ;
#113 = FACE_OUTER_BOUND ( 'NONE', #129, .T. ) ;
#114 = ORIENTED_EDGE ( 'NONE', *, *, #117, .F. ) ;
#115 = CARTESIAN_POINT ( 'NONE',  ( 0.000000000000000000, 0.000000000000000000, 5.199999999999982414 ) ) ;
#116 = DIRECTION ( 'NONE',  ( 1.000000000000000000, 0.000000000000000000, -0.000000000000000000 ) ) ;
#117 = EDGE_CURVE ( 'NONE', #155, #157, #259, .T. ) ;
#118 = FACE_OUTER_BOUND ( 'NONE', #283, .T. ) ;
#119 = FACE_OUTER_BOUND ( 'NONE', #38, .T. ) ;
#120 = APPLICATION_CONTEXT ( 'configuration controlled 3d designs of mechanical parts and assemblies' ) ;
#121 = PERSON_AND_ORGANIZATION ( #17, #81 ) ;
#122 = DATE_AND_TIME ( #247, #90 ) ;
#123 = SHAPE_DEFINITION_REPRESENTATION ( #194, #153 ) ;
#124 = ADVANCED_FACE ( 'NONE', ( #184, #113 ), #208, .T. ) ;
#125 = VERTEX_POINT ( 'NONE', #177 ) ;
#126 = VECTOR ( 'NONE', #43, 1000.000000000000000 ) ;
#127 = EDGE_LOOP ( 'NONE', ( #86, #253 ) ) ;
#128 = AXIS2_PLACEMENT_3D ( 'NONE', #34, #197, #171 ) ;
#129 = EDGE_LOOP ( 'NONE', ( #284, #154 ) ) ;
#130 = CARTESIAN_POINT ( 'NONE',  ( 4.250000000000000000, 5.204748896376250699E-16, 320.0000000000000000 ) ) ;
#131 = VERTEX_POINT ( 'NONE', #63 ) ;
#132 = ORIENTED_EDGE ( 'NONE', *, *, #8, .T. ) ;
#133 = CC_DESIGN_PERSON_AND_ORGANIZATION_ASSIGNMENT ( #106, #202, ( #237 ) ) ;
#134 = ORIENTED_EDGE ( 'NONE', *, *, #5, .T. ) ;
#135 = AXIS2_PLACEMENT_3D ( 'NONE', #268, #56, #244 ) ;
#136 = CARTESIAN_POINT ( 'NONE',  ( -4.250000000000000000, 0.000000000000000000, 320.0000000000000000 ) ) ;
#137 = ORIENTED_EDGE ( 'NONE', *, *, #238, .F. ) ;
#138 = DIRECTION ( 'NONE',  ( 0.000000000000000000, 0.000000000000000000, -1.000000000000000000 ) ) ;
#139 = DIRECTION ( 'NONE',  ( 1.000000000000000000, 0.000000000000000000, 0.000000000000000000 ) ) ;
#140 = AXIS2_PLACEMENT_3D ( 'NONE', #190, #163, #4 ) ;
#141 = CARTESIAN_POINT ( 'NONE',  ( 0.000000000000000000, 0.000000000000000000, 0.000000000000000000 ) ) ;
#142 = CYLINDRICAL_SURFACE ( 'NONE', #71, 7.000000000000000000 ) ;
#143 = EDGE_CURVE ( 'NONE', #39, #125, #41, .T. ) ;
#144 = DIRECTION ( 'NONE',  ( 0.000000000000000000, 0.000000000000000000, 1.000000000000000000 ) ) ;
#145 = CIRCLE ( 'NONE', #20, 7.000000000000000000 ) ;
#146 = PERSON_AND_ORGANIZATION ( #17, #81 ) ;
#147 = APPROVAL_ROLE ( '' ) ;
#148 = EDGE_CURVE ( 'NONE', #151, #131, #64, .T. ) ;
#149 = EDGE_LOOP ( 'NONE', ( #300, #22 ) ) ;
#150 = PERSON_AND_ORGANIZATION ( #17, #81 ) ;
#151 = VERTEX_POINT ( 'NONE', #130 ) ;
#152 = LOCAL_TIME ( 14, 30, 56.00000000000000000, #103 ) ;
#153 = ADVANCED_BREP_SHAPE_REPRESENTATION ( '6ac7', ( #183, #128 ), #229 ) ;
#154 = ORIENTED_EDGE ( 'NONE', *, *, #218, .T. ) ;
#155 = VERTEX_POINT ( 'NONE', #232 ) ;
#156 = EDGE_LOOP ( 'NONE', ( #84, #278, #185, #235 ) ) ;
#157 = VERTEX_POINT ( 'NONE', #112 ) ;
#158 = DIRECTION ( 'NONE',  ( 1.000000000000000000, 0.000000000000000000, 0.000000000000000000 ) ) ;
#159 = AXIS2_PLACEMENT_3D ( 'NONE', #45, #239, #301 ) ;
#160 = AXIS2_PLACEMENT_3D ( 'NONE', #216, #287, #243 ) ;
#161 = CARTESIAN_POINT ( 'NONE',  ( 0.000000000000000000, 0.000000000000000000, 320.0000000000000000 ) ) ;
#162 = EDGE_CURVE ( 'NONE', #230, #180, #25, .T. ) ;
#163 = DIRECTION ( 'NONE',  ( 0.000000000000000000, 0.000000000000000000, 1.000000000000000000 ) ) ;
#164 = CARTESIAN_POINT ( 'NONE',  ( 4.450000000000000178, 0.000000000000000000, 5.199999999999982414 ) ) ;
#165 = CARTESIAN_POINT ( 'NONE',  ( 0.000000000000000000, 0.000000000000000000, 5.000000000000000000 ) ) ;
#166 = DIRECTION ( 'NONE',  ( -1.000000000000000000, 0.000000000000000000, 0.000000000000000000 ) ) ;
#167 = PRODUCT_RELATED_PRODUCT_CATEGORY ( 'detail', '', ( #237 ) ) ;
#168 = COORDINATED_UNIVERSAL_TIME_OFFSET ( 1, 0, .AHEAD. ) ;
#169 = CC_DESIGN_APPROVAL ( #70, ( #60 ) ) ;
#170 = COORDINATED_UNIVERSAL_TIME_OFFSET ( 1, 0, .AHEAD. ) ;
#171 = DIRECTION ( 'NONE',  ( 1.000000000000000000, 0.000000000000000000, 0.000000000000000000 ) ) ;
#172 = CALENDAR_DATE ( 2022, 7, 7 ) ;
#173 = AXIS2_PLACEMENT_3D ( 'NONE', #164, #240, #138 ) ;
#174 = APPROVAL_STATUS ( 'not_yet_approved' ) ;
#175 = ADVANCED_FACE ( 'NONE', ( #267 ), #217, .F. ) ;
#176 = EDGE_LOOP ( 'NONE', ( #14, #88, #302, #87 ) ) ;
#177 = CARTESIAN_POINT ( 'NONE',  ( -4.250000000000000000, 0.000000000000000000, 5.199999999999982414 ) ) ;
#178 = AXIS2_PLACEMENT_3D ( 'NONE', #161, #260, #204 ) ;
#179 = CARTESIAN_POINT ( 'NONE',  ( -4.250000000000000000, 0.000000000000000000, 320.0000000000000000 ) ) ;
#180 = VERTEX_POINT ( 'NONE', #191 ) ;
#181 = CC_DESIGN_APPROVAL ( #223, ( #26 ) ) ;
#182 = DIRECTION ( 'NONE',  ( -0.000000000000000000, -0.000000000000000000, -1.000000000000000000 ) ) ;
#183 = MANIFOLD_SOLID_BREP ( 'Zaoblit1', #111 ) ;
#184 = FACE_BOUND ( 'NONE', #91, .T. ) ;
#185 = ORIENTED_EDGE ( 'NONE', *, *, #5, .F. ) ;
#186 = LINE ( 'NONE', #15, #297 ) ;
#187 = AXIS2_PLACEMENT_3D ( 'NONE', #219, #144, #245 ) ;
#188 = CARTESIAN_POINT ( 'NONE',  ( -4.450000000000000178, 5.449678256205721784E-16, 4.999999999999991118 ) ) ;
#189 = ADVANCED_FACE ( 'NONE', ( #53 ), #73, .T. ) ;
#190 = CARTESIAN_POINT ( 'NONE',  ( 0.000000000000000000, 0.000000000000000000, 5.199999999999982414 ) ) ;
#191 = CARTESIAN_POINT ( 'NONE',  ( 4.450000000000000178, 0.000000000000000000, 4.999999999999991118 ) ) ;
#192 = EDGE_CURVE ( 'NONE', #298, #211, #145, .T. ) ;
#193 = DIRECTION ( 'NONE',  ( 1.000000000000000000, 0.000000000000000000, 0.000000000000000000 ) ) ;
#194 = PRODUCT_DEFINITION_SHAPE ( 'NONE', 'NONE',  #60 ) ;
#195 = DIRECTION ( 'NONE',  ( -0.000000000000000000, -0.000000000000000000, -1.000000000000000000 ) ) ;
#196 = PERSON_AND_ORGANIZATION ( #17, #81 ) ;
#197 = DIRECTION ( 'NONE',  ( 0.000000000000000000, 0.000000000000000000, 1.000000000000000000 ) ) ;
#198 = LOCAL_TIME ( 14, 30, 56.00000000000000000, #168 ) ;
#199 = APPROVAL_ROLE ( '' ) ;
#200 = PERSON_AND_ORGANIZATION ( #17, #81 ) ;
#201 = APPROVAL ( #174, 'NEURÈENÝ' ) ;
#202 = PERSON_AND_ORGANIZATION_ROLE ( 'design_owner' ) ;
#203 = AXIS2_PLACEMENT_3D ( 'NONE', #51, #54, #242 ) ;
#204 = DIRECTION ( 'NONE',  ( -1.000000000000000000, 0.000000000000000000, 0.000000000000000000 ) ) ;
#205 = ORIENTED_EDGE ( 'NONE', *, *, #295, .T. ) ;
#206 = DIRECTION ( 'NONE',  ( 0.000000000000000000, 0.000000000000000000, 1.000000000000000000 ) ) ;
#207 = CIRCLE ( 'NONE', #55, 4.250000000000000000 ) ;
#208 = PLANE ( 'NONE',  #159 ) ;
#209 = ADVANCED_FACE ( 'NONE', ( #290 ), #79, .T. ) ;
#210 = DIRECTION ( 'NONE',  ( 1.224646799147353207E-16, 1.000000000000000000, -0.000000000000000000 ) ) ;
#211 = VERTEX_POINT ( 'NONE', #289 ) ;
#212 = CARTESIAN_POINT ( 'NONE',  ( 0.000000000000000000, 0.000000000000000000, 320.0000000000000000 ) ) ;
#213 = CC_DESIGN_PERSON_AND_ORGANIZATION_ASSIGNMENT ( #150, #7, ( #60 ) ) ;
#214 = LOCAL_TIME ( 14, 30, 56.00000000000000000, #170 ) ;
#215 = DIRECTION ( 'NONE',  ( 0.000000000000000000, 0.000000000000000000, 1.000000000000000000 ) ) ;
#216 = CARTESIAN_POINT ( 'NONE',  ( 0.000000000000000000, 0.000000000000000000, 5.000000000000000000 ) ) ;
#217 = PLANE ( 'NONE',  #254 ) ;
#218 = EDGE_CURVE ( 'NONE', #157, #155, #40, .T. ) ;
#219 = CARTESIAN_POINT ( 'NONE',  ( 0.000000000000000000, 0.000000000000000000, 5.199999999999982414 ) ) ;
#220 = APPLICATION_CONTEXT ( 'configuration controlled 3d designs of mechanical parts and assemblies' ) ;
#221 = CALENDAR_DATE ( 2022, 7, 7 ) ;
#222 = APPROVAL_DATE_TIME ( #122, #223 ) ;
#223 = APPROVAL ( #274, 'NEURÈENÝ' ) ;
#224 = DATE_TIME_ROLE ( 'creation_date' ) ;
#225 = AXIS2_PLACEMENT_3D ( 'NONE', #165, #97, #166 ) ;
#226 = APPROVAL_STATUS ( 'not_yet_approved' ) ;
#227 = EDGE_CURVE ( 'NONE', #131, #125, #299, .T. ) ;
#228 = CALENDAR_DATE ( 2022, 7, 7 ) ;
#229 =( GEOMETRIC_REPRESENTATION_CONTEXT ( 3 ) GLOBAL_UNCERTAINTY_ASSIGNED_CONTEXT ( ( #105 ) ) GLOBAL_UNIT_ASSIGNED_CONTEXT ( ( #72, #263, #271 ) ) REPRESENTATION_CONTEXT ( 'NONE', 'WORKASPACE' ) );
#230 = VERTEX_POINT ( 'NONE', #188 ) ;
#231 = ORIENTED_EDGE ( 'NONE', *, *, #148, .F. ) ;
#232 = CARTESIAN_POINT ( 'NONE',  ( -7.000000000000000000, 0.000000000000000000, 5.000000000000000000 ) ) ;
#233 = TOROIDAL_SURFACE ( 'NONE', #99, 4.450000000000000178, 0.2000000000000000111 ) ;
#234 = PLANE ( 'NONE',  #50 ) ;
#235 = ORIENTED_EDGE ( 'NONE', *, *, #266, .F. ) ;
#236 = DIRECTION ( 'NONE',  ( 1.000000000000000000, 0.000000000000000000, 0.000000000000000000 ) ) ;
#237 = PRODUCT ( '6ac7', '6ac7', '', ( #270 ) ) ;
#238 = EDGE_CURVE ( 'NONE', #157, #298, #264, .T. ) ;
#239 = DIRECTION ( 'NONE',  ( 0.000000000000000000, 0.000000000000000000, 1.000000000000000000 ) ) ;
#240 = DIRECTION ( 'NONE',  ( 0.000000000000000000, -1.000000000000000000, 0.000000000000000000 ) ) ;
#241 = APPROVAL_PERSON_ORGANIZATION ( #200, #201, #294 ) ;
#242 = DIRECTION ( 'NONE',  ( 1.000000000000000000, 0.000000000000000000, 0.000000000000000000 ) ) ;
#243 = DIRECTION ( 'NONE',  ( 1.000000000000000000, 0.000000000000000000, 0.000000000000000000 ) ) ;
#244 = DIRECTION ( 'NONE',  ( 1.000000000000000000, 0.000000000000000000, 0.000000000000000000 ) ) ;
#245 = DIRECTION ( 'NONE',  ( 1.000000000000000000, 0.000000000000000000, 0.000000000000000000 ) ) ;
#246 = EDGE_CURVE ( 'NONE', #39, #151, #108, .T. ) ;
#247 = CALENDAR_DATE ( 2022, 7, 7 ) ;
#248 = AXIS2_PLACEMENT_3D ( 'NONE', #1, #195, #193 ) ;
#249 = COORDINATED_UNIVERSAL_TIME_OFFSET ( 1, 0, .AHEAD. ) ;
#250 = ADVANCED_FACE ( 'NONE', ( #118 ), #142, .T. ) ;
#251 = DATE_AND_TIME ( #172, #214 ) ;
#252 = EDGE_LOOP ( 'NONE', ( #231, #66, #42, #109 ) ) ;
#253 = ORIENTED_EDGE ( 'NONE', *, *, #192, .F. ) ;
#254 = AXIS2_PLACEMENT_3D ( 'NONE', #141, #27, #116 ) ;
#255 = CARTESIAN_POINT ( 'NONE',  ( 4.250000000000000000, 5.204748896376250699E-16, 320.0000000000000000 ) ) ;
#256 = FACE_OUTER_BOUND ( 'NONE', #156, .T. ) ;
#257 = ORIENTED_EDGE ( 'NONE', *, *, #162, .T. ) ;
#258 = AXIS2_PLACEMENT_3D ( 'NONE', #19, #182, #158 ) ;
#259 = CIRCLE ( 'NONE', #74, 7.000000000000000000 ) ;
#260 = DIRECTION ( 'NONE',  ( -0.000000000000000000, -0.000000000000000000, -1.000000000000000000 ) ) ;
#261 = CC_DESIGN_DATE_AND_TIME_ASSIGNMENT ( #251, #224, ( #60 ) ) ;
#262 = DIRECTION ( 'NONE',  ( 1.000000000000000000, 0.000000000000000000, 0.000000000000000000 ) ) ;
#263 =( NAMED_UNIT ( * ) PLANE_ANGLE_UNIT ( ) SI_UNIT ( $, .RADIAN. ) );
#264 = LINE ( 'NONE', #286, #31 ) ;
#265 = APPROVAL_PERSON_ORGANIZATION ( #146, #223, #147 ) ;
#266 = EDGE_CURVE ( 'NONE', #131, #180, #285, .T. ) ;
#267 = FACE_OUTER_BOUND ( 'NONE', #127, .T. ) ;
#268 = CARTESIAN_POINT ( 'NONE',  ( 0.000000000000000000, 0.000000000000000000, 0.000000000000000000 ) ) ;
#269 = DIRECTION ( 'NONE',  ( -0.000000000000000000, -0.000000000000000000, -1.000000000000000000 ) ) ;
#270 = MECHANICAL_CONTEXT ( 'NONE', #120, 'mechanical' ) ;
#271 =( NAMED_UNIT ( * ) SI_UNIT ( $, .STERADIAN. ) SOLID_ANGLE_UNIT ( ) );
#272 = PERSON_AND_ORGANIZATION_ROLE ( 'design_supplier' ) ;
#273 = CIRCLE ( 'NONE', #258, 4.450000000000000178 ) ;
#274 = APPROVAL_STATUS ( 'not_yet_approved' ) ;
#275 = TOROIDAL_SURFACE ( 'NONE', #187, 4.450000000000000178, 0.2000000000000000111 ) ;
#276 = COORDINATED_UNIVERSAL_TIME_OFFSET ( 1, 0, .AHEAD. ) ;
#277 = CARTESIAN_POINT ( 'NONE',  ( 0.000000000000000000, 0.000000000000000000, 320.0000000000000000 ) ) ;
#278 = ORIENTED_EDGE ( 'NONE', *, *, #11, .T. ) ;
#279 = DIRECTION ( 'NONE',  ( 0.000000000000000000, 0.000000000000000000, 1.000000000000000000 ) ) ;
#280 = FACE_OUTER_BOUND ( 'NONE', #149, .T. ) ;
#281 = EDGE_CURVE ( 'NONE', #125, #131, #12, .T. ) ;
#282 = ORIENTED_EDGE ( 'NONE', *, *, #148, .T. ) ;
#283 = EDGE_LOOP ( 'NONE', ( #137, #114, #132, #205 ) ) ;
#284 = ORIENTED_EDGE ( 'NONE', *, *, #117, .T. ) ;
#285 = CIRCLE ( 'NONE', #173, 0.1999999999999996503 ) ;
#286 = CARTESIAN_POINT ( 'NONE',  ( 7.000000000000000000, 8.572527594031473190E-16, 5.000000000000000000 ) ) ;
#287 = DIRECTION ( 'NONE',  ( 0.000000000000000000, 0.000000000000000000, 1.000000000000000000 ) ) ;
#288 = CARTESIAN_POINT ( 'NONE',  ( 0.000000000000000000, 0.000000000000000000, 0.000000000000000000 ) ) ;
#289 = CARTESIAN_POINT ( 'NONE',  ( -7.000000000000000000, 0.000000000000000000, 0.000000000000000000 ) ) ;
#290 = FACE_OUTER_BOUND ( 'NONE', #176, .T. ) ;
#291 = PERSON_AND_ORGANIZATION_ROLE ( 'classification_officer' ) ;
#292 = AXIS2_PLACEMENT_3D ( 'NONE', #101, #78, #139 ) ;
#293 = APPROVAL_DATE_TIME ( #9, #70 ) ;
#294 = APPROVAL_ROLE ( '' ) ;
#295 = EDGE_CURVE ( 'NONE', #211, #298, #13, .T. ) ;
#296 = DATE_TIME_ROLE ( 'classification_date' ) ;
#297 = VECTOR ( 'NONE', #95, 1000.000000000000000 ) ;
#298 = VERTEX_POINT ( 'NONE', #30 ) ;
#299 = CIRCLE ( 'NONE', #140, 4.250000000000000000 ) ;
#300 = ORIENTED_EDGE ( 'NONE', *, *, #246, .T. ) ;
#301 = DIRECTION ( 'NONE',  ( 1.000000000000000000, 0.000000000000000000, -0.000000000000000000 ) ) ;
#302 = ORIENTED_EDGE ( 'NONE', *, *, #192, .T. ) ;
#303 = ORIENTED_EDGE ( 'NONE', *, *, #266, .T. ) ;
#304 = ADVANCED_FACE ( 'NONE', ( #119 ), #275, .F. ) ;
#305 = DIRECTION ( 'NONE',  ( -1.000000000000000000, 1.224646799147353454E-16, 0.000000000000000000 ) ) ;
#306 = ORIENTED_EDGE ( 'NONE', *, *, #11, .F. ) ;
#307 = DIRECTION ( 'NONE',  ( 0.000000000000000000, 0.000000000000000000, 1.000000000000000000 ) ) ;
ENDSEC;
END-ISO-10303-21;
