ISO-10303-21;
HEADER;
FILE_DESCRIPTION (( 'STEP AP203' ),
    '1' );
FILE_NAME ('a7ae.STEP',
    '2023-02-12T11:40:35',
    ( '' ),
    ( '' ),
    'SwSTEP 2.0',
    'SolidWorks 2019',
    '' );
FILE_SCHEMA (( 'CONFIG_CONTROL_DESIGN' ));
ENDSEC;

DATA;
#1 = APPROVAL_STATUS ( 'not_yet_approved' ) ;
#2 = EDGE_LOOP ( 'NONE', ( #222, #23, #7, #26 ) ) ;
#3 = ORIENTED_EDGE ( 'NONE', *, *, #10, .F. ) ;
#4 = ADVANCED_FACE ( 'NONE', ( #51, #108 ), #86, .T. ) ;
#5 = DATE_AND_TIME ( #42, #210 ) ;
#6 = CC_DESIGN_PERSON_AND_ORGANIZATION_ASSIGNMENT ( #158, #56, ( #247 ) ) ;
#7 = ORIENTED_EDGE ( 'NONE', *, *, #50, .T. ) ;
#8 = DIRECTION ( 'NONE',  ( 0.000000000000000000, 0.000000000000000000, 1.000000000000000000 ) ) ;
#9 = CARTESIAN_POINT ( 'NONE',  ( 0.000000000000000000, 0.000000000000000000, 5.000000000000000000 ) ) ;
#10 = EDGE_CURVE ( 'NONE', #241, #66, #54, .T. ) ;
#11 = LINE ( 'NONE', #33, #149 ) ;
#12 = DIRECTION ( 'NONE',  ( 1.000000000000000000, 0.000000000000000000, 0.000000000000000000 ) ) ;
#13 = EDGE_CURVE ( 'NONE', #241, #189, #253, .T. ) ;
#14 = CARTESIAN_POINT ( 'NONE',  ( 0.000000000000000000, 0.000000000000000000, 0.000000000000000000 ) ) ;
#15 = PLANE ( 'NONE',  #109 ) ;
#16 =( NAMED_UNIT ( * ) SI_UNIT ( $, .STERADIAN. ) SOLID_ANGLE_UNIT ( ) );
#17 = APPROVAL ( #102, 'NEURÈENÝ' ) ;
#18 = ADVANCED_FACE ( 'NONE', ( #167 ), #49, .T. ) ;
#19 = CC_DESIGN_DATE_AND_TIME_ASSIGNMENT ( #34, #117, ( #247 ) ) ;
#20 = AXIS2_PLACEMENT_3D ( 'NONE', #187, #166, #227 ) ;
#21 = CC_DESIGN_SECURITY_CLASSIFICATION ( #62, ( #105 ) ) ;
#22 = PERSON_AND_ORGANIZATION ( #94, #198 ) ;
#23 = ORIENTED_EDGE ( 'NONE', *, *, #111, .F. ) ;
#24 = EDGE_LOOP ( 'NONE', ( #237, #143 ) ) ;
#25 = CC_DESIGN_APPROVAL ( #89, ( #105 ) ) ;
#26 = ORIENTED_EDGE ( 'NONE', *, *, #188, .T. ) ;
#27 = CC_DESIGN_PERSON_AND_ORGANIZATION_ASSIGNMENT ( #47, #160, ( #62 ) ) ;
#28 = CARTESIAN_POINT ( 'NONE',  ( 0.000000000000000000, 0.000000000000000000, 160.0000000000000000 ) ) ;
#29 = DIRECTION ( 'NONE',  ( -1.000000000000000000, 0.000000000000000000, 0.000000000000000000 ) ) ;
#30 = CIRCLE ( 'NONE', #163, 6.000000000000000888 ) ;
#31 = CARTESIAN_POINT ( 'NONE',  ( -3.000000000000000444, 0.000000000000000000, 160.0000000000000000 ) ) ;
#32 = FACE_OUTER_BOUND ( 'NONE', #104, .T. ) ;
#33 = CARTESIAN_POINT ( 'NONE',  ( 3.000000000000000444, 3.673940397442060361E-16, 160.0000000000000000 ) ) ;
#34 = DATE_AND_TIME ( #177, #114 ) ;
#35 =( LENGTH_UNIT ( ) NAMED_UNIT ( * ) SI_UNIT ( .MILLI., .METRE. ) );
#36 = AXIS2_PLACEMENT_3D ( 'NONE', #113, #215, #29 ) ;
#37 = APPROVAL_STATUS ( 'not_yet_approved' ) ;
#38 = DIRECTION ( 'NONE',  ( 1.000000000000000000, 0.000000000000000000, 0.000000000000000000 ) ) ;
#39 = CALENDAR_DATE ( 2023, 12, 2 ) ;
#40 = CIRCLE ( 'NONE', #175, 3.000000000000000444 ) ;
#41 = VERTEX_POINT ( 'NONE', #229 ) ;
#42 = CALENDAR_DATE ( 2023, 12, 2 ) ;
#43 = ORIENTED_EDGE ( 'NONE', *, *, #64, .T. ) ;
#44 = EDGE_LOOP ( 'NONE', ( #159, #107, #162, #168 ) ) ;
#45 = CC_DESIGN_PERSON_AND_ORGANIZATION_ASSIGNMENT ( #224, #83, ( #105 ) ) ;
#46 = LOCAL_TIME ( 12, 40, 35.00000000000000000, #141 ) ;
#47 = PERSON_AND_ORGANIZATION ( #94, #198 ) ;
#48 = EDGE_LOOP ( 'NONE', ( #101, #204 ) ) ;
#49 = PLANE ( 'NONE',  #196 ) ;
#50 = EDGE_CURVE ( 'NONE', #164, #41, #112, .T. ) ;
#51 = FACE_BOUND ( 'NONE', #65, .T. ) ;
#52 = CARTESIAN_POINT ( 'NONE',  ( 0.000000000000000000, 0.000000000000000000, 5.000000000000000000 ) ) ;
#53 = CIRCLE ( 'NONE', #176, 3.000000000000000444 ) ;
#54 = LINE ( 'NONE', #186, #183 ) ;
#55 = CARTESIAN_POINT ( 'NONE',  ( 0.000000000000000000, 0.000000000000000000, 160.0000000000000000 ) ) ;
#56 = PERSON_AND_ORGANIZATION_ROLE ( 'creator' ) ;
#57 = DESIGN_CONTEXT ( 'detailed design', #199, 'design' ) ;
#58 = AXIS2_PLACEMENT_3D ( 'NONE', #63, #251, #218 ) ;
#59 = CARTESIAN_POINT ( 'NONE',  ( 6.000000000000000888, 7.347880794884120722E-16, 5.000000000000000000 ) ) ;
#60 = DIRECTION ( 'NONE',  ( 0.000000000000000000, 0.000000000000000000, 1.000000000000000000 ) ) ;
#61 = MECHANICAL_CONTEXT ( 'NONE', #98, 'mechanical' ) ;
#62 = SECURITY_CLASSIFICATION ( '', '', #99 ) ;
#63 = CARTESIAN_POINT ( 'NONE',  ( 0.000000000000000000, 0.000000000000000000, 5.000000000000000000 ) ) ;
#64 = EDGE_CURVE ( 'NONE', #66, #200, #85, .T. ) ;
#65 = EDGE_LOOP ( 'NONE', ( #182, #138 ) ) ;
#66 = VERTEX_POINT ( 'NONE', #172 ) ;
#67 = ORIENTED_EDGE ( 'NONE', *, *, #64, .F. ) ;
#68 = CIRCLE ( 'NONE', #184, 3.000000000000000444 ) ;
#69 = CARTESIAN_POINT ( 'NONE',  ( 0.000000000000000000, 0.000000000000000000, 160.0000000000000000 ) ) ;
#70 = EDGE_CURVE ( 'NONE', #242, #164, #40, .T. ) ;
#71 = FACE_OUTER_BOUND ( 'NONE', #2, .T. ) ;
#72 = CYLINDRICAL_SURFACE ( 'NONE', #36, 6.000000000000000888 ) ;
#73 =( GEOMETRIC_REPRESENTATION_CONTEXT ( 3 ) GLOBAL_UNCERTAINTY_ASSIGNED_CONTEXT ( ( #252 ) ) GLOBAL_UNIT_ASSIGNED_CONTEXT ( ( #35, #92, #16 ) ) REPRESENTATION_CONTEXT ( 'NONE', 'WORKASPACE' ) );
#74 = DIRECTION ( 'NONE',  ( 0.000000000000000000, 0.000000000000000000, 1.000000000000000000 ) ) ;
#75 = CARTESIAN_POINT ( 'NONE',  ( 0.000000000000000000, 0.000000000000000000, 0.000000000000000000 ) ) ;
#76 = CARTESIAN_POINT ( 'NONE',  ( 3.000000000000000444, 3.673940397442060361E-16, 160.0000000000000000 ) ) ;
#77 = DIRECTION ( 'NONE',  ( 0.000000000000000000, 0.000000000000000000, 1.000000000000000000 ) ) ;
#78 = EDGE_CURVE ( 'NONE', #189, #200, #209, .T. ) ;
#79 = PRODUCT_DEFINITION_SHAPE ( 'NONE', 'NONE',  #247 ) ;
#80 = VERTEX_POINT ( 'NONE', #244 ) ;
#81 = AXIS2_PLACEMENT_3D ( 'NONE', #194, #60, #255 ) ;
#82 = ORIENTED_EDGE ( 'NONE', *, *, #208, .F. ) ;
#83 = PERSON_AND_ORGANIZATION_ROLE ( 'creator' ) ;
#84 = DIRECTION ( 'NONE',  ( -1.000000000000000000, 0.000000000000000000, 0.000000000000000000 ) ) ;
#85 = CIRCLE ( 'NONE', #121, 6.000000000000000888 ) ;
#86 = PLANE ( 'NONE',  #243 ) ;
#87 = DIRECTION ( 'NONE',  ( 0.000000000000000000, 0.000000000000000000, 1.000000000000000000 ) ) ;
#88 = DIRECTION ( 'NONE',  ( 0.000000000000000000, 0.000000000000000000, 1.000000000000000000 ) ) ;
#89 = APPROVAL ( #1, 'NEURÈENÝ' ) ;
#90 = DIRECTION ( 'NONE',  ( 1.000000000000000000, 0.000000000000000000, -0.000000000000000000 ) ) ;
#91 = DIRECTION ( 'NONE',  ( 1.000000000000000000, 0.000000000000000000, 0.000000000000000000 ) ) ;
#92 =( NAMED_UNIT ( * ) PLANE_ANGLE_UNIT ( ) SI_UNIT ( $, .RADIAN. ) );
#93 = APPROVAL_ROLE ( '' ) ;
#94 = PERSON ( 'NEURÈENÝ', 'NEURÈENÝ', 'NEURÈENÝ', ('NEURÈENÝ'), ('NEURÈENÝ'), ('NEURÈENÝ') ) ;
#95 = FACE_OUTER_BOUND ( 'NONE', #124, .T. ) ;
#96 = ADVANCED_FACE ( 'NONE', ( #71 ), #206, .T. ) ;
#97 = APPROVAL_DATE_TIME ( #153, #201 ) ;
#98 = APPLICATION_CONTEXT ( 'configuration controlled 3d designs of mechanical parts and assemblies' ) ;
#99 = SECURITY_CLASSIFICATION_LEVEL ( 'unclassified' ) ;
#100 = DATE_AND_TIME ( #39, #46 ) ;
#101 = ORIENTED_EDGE ( 'NONE', *, *, #208, .T. ) ;
#102 = APPROVAL_STATUS ( 'not_yet_approved' ) ;
#103 = VECTOR ( 'NONE', #245, 1000.000000000000000 ) ;
#104 = EDGE_LOOP ( 'NONE', ( #3, #82, #231, #161 ) ) ;
#105 = PRODUCT_DEFINITION_FORMATION_WITH_SPECIFIED_SOURCE ( 'LIBOVOLNÝ', '', #120, .NOT_KNOWN. ) ;
#106 = ORIENTED_EDGE ( 'NONE', *, *, #10, .T. ) ;
#107 = ORIENTED_EDGE ( 'NONE', *, *, #146, .T. ) ;
#108 = FACE_OUTER_BOUND ( 'NONE', #48, .T. ) ;
#109 = AXIS2_PLACEMENT_3D ( 'NONE', #156, #193, #233 ) ;
#110 = DIRECTION ( 'NONE',  ( -0.000000000000000000, -0.000000000000000000, -1.000000000000000000 ) ) ;
#111 = EDGE_CURVE ( 'NONE', #164, #242, #239, .T. ) ;
#112 = LINE ( 'NONE', #31, #103 ) ;
#113 = CARTESIAN_POINT ( 'NONE',  ( 0.000000000000000000, 0.000000000000000000, 5.000000000000000000 ) ) ;
#114 = LOCAL_TIME ( 12, 40, 35.00000000000000000, #216 ) ;
#115 = CYLINDRICAL_SURFACE ( 'NONE', #136, 3.000000000000000444 ) ;
#116 = COORDINATED_UNIVERSAL_TIME_OFFSET ( 1, 0, .AHEAD. ) ;
#117 = DATE_TIME_ROLE ( 'creation_date' ) ;
#118 = APPROVAL_PERSON_ORGANIZATION ( #133, #201, #254 ) ;
#119 = FACE_OUTER_BOUND ( 'NONE', #125, .T. ) ;
#120 = PRODUCT ( 'a7ae', 'a7ae', '', ( #61 ) ) ;
#121 = AXIS2_PLACEMENT_3D ( 'NONE', #75, #128, #12 ) ;
#122 = DATE_TIME_ROLE ( 'classification_date' ) ;
#123 = LOCAL_TIME ( 12, 40, 35.00000000000000000, #116 ) ;
#124 = EDGE_LOOP ( 'NONE', ( #165, #67 ) ) ;
#125 = EDGE_LOOP ( 'NONE', ( #181, #106, #43, #202 ) ) ;
#126 = CARTESIAN_POINT ( 'NONE',  ( 0.000000000000000000, 0.000000000000000000, 160.0000000000000000 ) ) ;
#127 = PRODUCT_RELATED_PRODUCT_CATEGORY ( 'detail', '', ( #120 ) ) ;
#128 = DIRECTION ( 'NONE',  ( 0.000000000000000000, 0.000000000000000000, 1.000000000000000000 ) ) ;
#129 = AXIS2_PLACEMENT_3D ( 'NONE', #28, #212, #132 ) ;
#130 = DIRECTION ( 'NONE',  ( 1.000000000000000000, 0.000000000000000000, 0.000000000000000000 ) ) ;
#131 = DIRECTION ( 'NONE',  ( -0.000000000000000000, -0.000000000000000000, -1.000000000000000000 ) ) ;
#132 = DIRECTION ( 'NONE',  ( 1.000000000000000000, 0.000000000000000000, 0.000000000000000000 ) ) ;
#133 = PERSON_AND_ORGANIZATION ( #94, #198 ) ;
#134 = PERSON_AND_ORGANIZATION_ROLE ( 'design_owner' ) ;
#135 = PERSON_AND_ORGANIZATION ( #94, #198 ) ;
#136 = AXIS2_PLACEMENT_3D ( 'NONE', #69, #190, #84 ) ;
#137 = APPROVAL_ROLE ( '' ) ;
#138 = ORIENTED_EDGE ( 'NONE', *, *, #171, .F. ) ;
#139 = ADVANCED_FACE ( 'NONE', ( #32 ), #72, .T. ) ;
#140 = APPROVAL_DATE_TIME ( #5, #17 ) ;
#141 = COORDINATED_UNIVERSAL_TIME_OFFSET ( 1, 0, .AHEAD. ) ;
#142 = MANIFOLD_SOLID_BREP ( 'Pøidat vysunutím3', #214 ) ;
#143 = ORIENTED_EDGE ( 'NONE', *, *, #70, .T. ) ;
#144 = LOCAL_TIME ( 12, 40, 35.00000000000000000, #173 ) ;
#145 = CARTESIAN_POINT ( 'NONE',  ( -3.000000000000000444, 0.000000000000000000, 160.0000000000000000 ) ) ;
#146 = EDGE_CURVE ( 'NONE', #242, #80, #11, .T. ) ;
#147 = FACE_OUTER_BOUND ( 'NONE', #44, .T. ) ;
#148 = ADVANCED_FACE ( 'NONE', ( #147 ), #115, .T. ) ;
#149 = VECTOR ( 'NONE', #110, 1000.000000000000000 ) ;
#150 = CARTESIAN_POINT ( 'NONE',  ( -6.000000000000000888, 0.000000000000000000, 5.000000000000000000 ) ) ;
#151 = CARTESIAN_POINT ( 'NONE',  ( -6.000000000000000888, 0.000000000000000000, 5.000000000000000000 ) ) ;
#152 = DIRECTION ( 'NONE',  ( -0.000000000000000000, -0.000000000000000000, -1.000000000000000000 ) ) ;
#153 = DATE_AND_TIME ( #221, #144 ) ;
#154 = APPLICATION_PROTOCOL_DEFINITION ( 'international standard', 'config_control_design', 1994, #199 ) ;
#155 = ADVANCED_BREP_SHAPE_REPRESENTATION ( 'a7ae', ( #142, #220 ), #73 ) ;
#156 = CARTESIAN_POINT ( 'NONE',  ( 0.000000000000000000, 0.000000000000000000, 0.000000000000000000 ) ) ;
#157 = DIRECTION ( 'NONE',  ( 0.000000000000000000, 0.000000000000000000, 1.000000000000000000 ) ) ;
#158 = PERSON_AND_ORGANIZATION ( #94, #198 ) ;
#159 = ORIENTED_EDGE ( 'NONE', *, *, #70, .F. ) ;
#160 = PERSON_AND_ORGANIZATION_ROLE ( 'classification_officer' ) ;
#161 = ORIENTED_EDGE ( 'NONE', *, *, #217, .T. ) ;
#162 = ORIENTED_EDGE ( 'NONE', *, *, #171, .T. ) ;
#163 = AXIS2_PLACEMENT_3D ( 'NONE', #234, #157, #38 ) ;
#164 = VERTEX_POINT ( 'NONE', #145 ) ;
#165 = ORIENTED_EDGE ( 'NONE', *, *, #217, .F. ) ;
#166 = DIRECTION ( 'NONE',  ( 0.000000000000000000, 0.000000000000000000, 1.000000000000000000 ) ) ;
#167 = FACE_OUTER_BOUND ( 'NONE', #24, .T. ) ;
#168 = ORIENTED_EDGE ( 'NONE', *, *, #50, .F. ) ;
#169 = DIRECTION ( 'NONE',  ( 0.000000000000000000, 0.000000000000000000, 1.000000000000000000 ) ) ;
#170 = APPROVAL_PERSON_ORGANIZATION ( #22, #17, #137 ) ;
#171 = EDGE_CURVE ( 'NONE', #80, #41, #68, .T. ) ;
#172 = CARTESIAN_POINT ( 'NONE',  ( 6.000000000000000888, 7.347880794884120722E-16, 0.000000000000000000 ) ) ;
#173 = COORDINATED_UNIVERSAL_TIME_OFFSET ( 1, 0, .AHEAD. ) ;
#174 = APPLICATION_PROTOCOL_DEFINITION ( 'international standard', 'config_control_design', 1994, #98 ) ;
#175 = AXIS2_PLACEMENT_3D ( 'NONE', #126, #88, #130 ) ;
#176 = AXIS2_PLACEMENT_3D ( 'NONE', #9, #87, #246 ) ;
#177 = CALENDAR_DATE ( 2023, 12, 2 ) ;
#178 = CC_DESIGN_PERSON_AND_ORGANIZATION_ASSIGNMENT ( #135, #134, ( #120 ) ) ;
#179 = PERSON_AND_ORGANIZATION ( #94, #198 ) ;
#180 = APPROVAL_DATE_TIME ( #240, #89 ) ;
#181 = ORIENTED_EDGE ( 'NONE', *, *, #13, .F. ) ;
#182 = ORIENTED_EDGE ( 'NONE', *, *, #188, .F. ) ;
#183 = VECTOR ( 'NONE', #248, 1000.000000000000000 ) ;
#184 = AXIS2_PLACEMENT_3D ( 'NONE', #185, #8, #228 ) ;
#185 = CARTESIAN_POINT ( 'NONE',  ( 0.000000000000000000, 0.000000000000000000, 5.000000000000000000 ) ) ;
#186 = CARTESIAN_POINT ( 'NONE',  ( 6.000000000000000888, 7.347880794884120722E-16, 5.000000000000000000 ) ) ;
#187 = CARTESIAN_POINT ( 'NONE',  ( 0.000000000000000000, 0.000000000000000000, 5.000000000000000000 ) ) ;
#188 = EDGE_CURVE ( 'NONE', #41, #80, #53, .T. ) ;
#189 = VERTEX_POINT ( 'NONE', #150 ) ;
#190 = DIRECTION ( 'NONE',  ( -0.000000000000000000, -0.000000000000000000, -1.000000000000000000 ) ) ;
#191 = CALENDAR_DATE ( 2023, 12, 2 ) ;
#192 = ADVANCED_FACE ( 'NONE', ( #95 ), #15, .F. ) ;
#193 = DIRECTION ( 'NONE',  ( 0.000000000000000000, 0.000000000000000000, 1.000000000000000000 ) ) ;
#194 = CARTESIAN_POINT ( 'NONE',  ( 0.000000000000000000, 0.000000000000000000, 0.000000000000000000 ) ) ;
#195 = COORDINATED_UNIVERSAL_TIME_OFFSET ( 1, 0, .AHEAD. ) ;
#196 = AXIS2_PLACEMENT_3D ( 'NONE', #55, #169, #250 ) ;
#197 = PERSON_AND_ORGANIZATION_ROLE ( 'design_supplier' ) ;
#198 = ORGANIZATION ( 'NEURÈENÝ', 'NEURÈENÝ', '' ) ;
#199 = APPLICATION_CONTEXT ( 'configuration controlled 3d designs of mechanical parts and assemblies' ) ;
#200 = VERTEX_POINT ( 'NONE', #219 ) ;
#201 = APPROVAL ( #37, 'NEURÈENÝ' ) ;
#202 = ORIENTED_EDGE ( 'NONE', *, *, #78, .F. ) ;
#203 = CC_DESIGN_APPROVAL ( #17, ( #62 ) ) ;
#204 = ORIENTED_EDGE ( 'NONE', *, *, #13, .T. ) ;
#205 = ADVANCED_FACE ( 'NONE', ( #119 ), #232, .T. ) ;
#206 = CYLINDRICAL_SURFACE ( 'NONE', #238, 3.000000000000000444 ) ;
#207 = VECTOR ( 'NONE', #152, 1000.000000000000000 ) ;
#208 = EDGE_CURVE ( 'NONE', #189, #241, #30, .T. ) ;
#209 = LINE ( 'NONE', #151, #207 ) ;
#210 = LOCAL_TIME ( 12, 40, 35.00000000000000000, #195 ) ;
#211 = CARTESIAN_POINT ( 'NONE',  ( 0.000000000000000000, 0.000000000000000000, 160.0000000000000000 ) ) ;
#212 = DIRECTION ( 'NONE',  ( 0.000000000000000000, 0.000000000000000000, 1.000000000000000000 ) ) ;
#213 = CC_DESIGN_PERSON_AND_ORGANIZATION_ASSIGNMENT ( #225, #197, ( #105 ) ) ;
#214 = CLOSED_SHELL ( 'NONE', ( #148, #205, #139, #4, #192, #96, #18 ) ) ;
#215 = DIRECTION ( 'NONE',  ( -0.000000000000000000, -0.000000000000000000, -1.000000000000000000 ) ) ;
#216 = COORDINATED_UNIVERSAL_TIME_OFFSET ( 1, 0, .AHEAD. ) ;
#217 = EDGE_CURVE ( 'NONE', #200, #66, #226, .T. ) ;
#218 = DIRECTION ( 'NONE',  ( -1.000000000000000000, 0.000000000000000000, 0.000000000000000000 ) ) ;
#219 = CARTESIAN_POINT ( 'NONE',  ( -6.000000000000000888, 0.000000000000000000, 0.000000000000000000 ) ) ;
#220 = AXIS2_PLACEMENT_3D ( 'NONE', #14, #77, #91 ) ;
#221 = CALENDAR_DATE ( 2023, 12, 2 ) ;
#222 = ORIENTED_EDGE ( 'NONE', *, *, #146, .F. ) ;
#223 = CC_DESIGN_APPROVAL ( #201, ( #247 ) ) ;
#224 = PERSON_AND_ORGANIZATION ( #94, #198 ) ;
#225 = PERSON_AND_ORGANIZATION ( #94, #198 ) ;
#226 = CIRCLE ( 'NONE', #81, 6.000000000000000888 ) ;
#227 = DIRECTION ( 'NONE',  ( 1.000000000000000000, 0.000000000000000000, 0.000000000000000000 ) ) ;
#228 = DIRECTION ( 'NONE',  ( 1.000000000000000000, 0.000000000000000000, 0.000000000000000000 ) ) ;
#229 = CARTESIAN_POINT ( 'NONE',  ( -3.000000000000000444, 0.000000000000000000, 5.000000000000000000 ) ) ;
#230 = DIRECTION ( 'NONE',  ( -1.000000000000000000, 0.000000000000000000, 0.000000000000000000 ) ) ;
#231 = ORIENTED_EDGE ( 'NONE', *, *, #78, .T. ) ;
#232 = CYLINDRICAL_SURFACE ( 'NONE', #58, 6.000000000000000888 ) ;
#233 = DIRECTION ( 'NONE',  ( 1.000000000000000000, 0.000000000000000000, -0.000000000000000000 ) ) ;
#234 = CARTESIAN_POINT ( 'NONE',  ( 0.000000000000000000, 0.000000000000000000, 5.000000000000000000 ) ) ;
#235 = CC_DESIGN_DATE_AND_TIME_ASSIGNMENT ( #100, #122, ( #62 ) ) ;
#236 = SHAPE_DEFINITION_REPRESENTATION ( #79, #155 ) ;
#237 = ORIENTED_EDGE ( 'NONE', *, *, #111, .T. ) ;
#238 = AXIS2_PLACEMENT_3D ( 'NONE', #211, #131, #230 ) ;
#239 = CIRCLE ( 'NONE', #129, 3.000000000000000444 ) ;
#240 = DATE_AND_TIME ( #191, #123 ) ;
#241 = VERTEX_POINT ( 'NONE', #59 ) ;
#242 = VERTEX_POINT ( 'NONE', #76 ) ;
#243 = AXIS2_PLACEMENT_3D ( 'NONE', #52, #74, #90 ) ;
#244 = CARTESIAN_POINT ( 'NONE',  ( 3.000000000000000444, 3.673940397442060361E-16, 5.000000000000000000 ) ) ;
#245 = DIRECTION ( 'NONE',  ( -0.000000000000000000, -0.000000000000000000, -1.000000000000000000 ) ) ;
#246 = DIRECTION ( 'NONE',  ( 1.000000000000000000, 0.000000000000000000, 0.000000000000000000 ) ) ;
#247 = PRODUCT_DEFINITION ( 'NEZNÁMÝ', '', #105, #57 ) ;
#248 = DIRECTION ( 'NONE',  ( -0.000000000000000000, -0.000000000000000000, -1.000000000000000000 ) ) ;
#249 = APPROVAL_PERSON_ORGANIZATION ( #179, #89, #93 ) ;
#250 = DIRECTION ( 'NONE',  ( 1.000000000000000000, 0.000000000000000000, -0.000000000000000000 ) ) ;
#251 = DIRECTION ( 'NONE',  ( -0.000000000000000000, -0.000000000000000000, -1.000000000000000000 ) ) ;
#252 = UNCERTAINTY_MEASURE_WITH_UNIT (LENGTH_MEASURE( 1.000000000000000082E-05 ), #35, 'distance_accuracy_value', 'NONE');
#253 = CIRCLE ( 'NONE', #20, 6.000000000000000888 ) ;
#254 = APPROVAL_ROLE ( '' ) ;
#255 = DIRECTION ( 'NONE',  ( 1.000000000000000000, 0.000000000000000000, 0.000000000000000000 ) ) ;
ENDSEC;
END-ISO-10303-21;
