ISO-10303-21;
HEADER;
FILE_DESCRIPTION (( 'STEP AP203' ),
    '1' );
FILE_NAME ('f7d5.STEP',
    '2022-07-07T12:41:55',
    ( '' ),
    ( '' ),
    'SwSTEP 2.0',
    'SolidWorks 2019',
    '' );
FILE_SCHEMA (( 'CONFIG_CONTROL_DESIGN' ));
ENDSEC;

DATA;
#1 = LINE ( 'NONE', #233, #290 ) ;
#2 = CC_DESIGN_APPROVAL ( #116, ( #253 ) ) ;
#3 = DIRECTION ( 'NONE',  ( 0.000000000000000000, 0.000000000000000000, 1.000000000000000000 ) ) ;
#4 = APPLICATION_PROTOCOL_DEFINITION ( 'international standard', 'config_control_design', 1994, #8 ) ;
#5 = CARTESIAN_POINT ( 'NONE',  ( 0.000000000000000000, 0.000000000000000000, 320.0000000000000000 ) ) ;
#6 = AXIS2_PLACEMENT_3D ( 'NONE', #46, #193, #123 ) ;
#7 = PLANE ( 'NONE',  #112 ) ;
#8 = APPLICATION_CONTEXT ( 'configuration controlled 3d designs of mechanical parts and assemblies' ) ;
#9 = CARTESIAN_POINT ( 'NONE',  ( 3.200000000000000622, 0.000000000000000000, 5.199999999999982414 ) ) ;
#10 = PERSON_AND_ORGANIZATION ( #173, #22 ) ;
#11 = APPROVAL_ROLE ( '' ) ;
#12 = PRODUCT_DEFINITION_FORMATION_WITH_SPECIFIED_SOURCE ( 'LIBOVOLNÝ', '', #171, .NOT_KNOWN. ) ;
#13 = ORIENTED_EDGE ( 'NONE', *, *, #256, .T. ) ;
#14 = DATE_AND_TIME ( #201, #135 ) ;
#15 = ORIENTED_EDGE ( 'NONE', *, *, #282, .F. ) ;
#16 = APPROVAL_ROLE ( '' ) ;
#17 = ORIENTED_EDGE ( 'NONE', *, *, #209, .T. ) ;
#18 = ORIENTED_EDGE ( 'NONE', *, *, #223, .F. ) ;
#19 = APPROVAL ( #248, 'NEURÈENÝ' ) ;
#20 = CARTESIAN_POINT ( 'NONE',  ( 0.000000000000000000, 0.000000000000000000, 5.000000000000000000 ) ) ;
#21 = CARTESIAN_POINT ( 'NONE',  ( 6.000000000000000888, 7.347880794884120722E-16, 5.000000000000000000 ) ) ;
#22 = ORGANIZATION ( 'NEURÈENÝ', 'NEURÈENÝ', '' ) ;
#23 = DIRECTION ( 'NONE',  ( -1.000000000000000000, 0.000000000000000000, 0.000000000000000000 ) ) ;
#24 = ADVANCED_FACE ( 'NONE', ( #244 ), #38, .T. ) ;
#25 = MANIFOLD_SOLID_BREP ( 'Zaoblit1', #134 ) ;
#26 = DIRECTION ( 'NONE',  ( -0.000000000000000000, -0.000000000000000000, -1.000000000000000000 ) ) ;
#27 = VECTOR ( 'NONE', #278, 1000.000000000000000 ) ;
#28 = FACE_OUTER_BOUND ( 'NONE', #42, .T. ) ;
#29 = CIRCLE ( 'NONE', #102, 6.000000000000000888 ) ;
#30 = DIRECTION ( 'NONE',  ( 0.000000000000000000, 0.000000000000000000, 1.000000000000000000 ) ) ;
#31 = ADVANCED_FACE ( 'NONE', ( #150, #168 ), #51, .T. ) ;
#32 = FACE_OUTER_BOUND ( 'NONE', #203, .T. ) ;
#33 =( LENGTH_UNIT ( ) NAMED_UNIT ( * ) SI_UNIT ( .MILLI., .METRE. ) );
#34 = CC_DESIGN_SECURITY_CLASSIFICATION ( #253, ( #12 ) ) ;
#35 =( NAMED_UNIT ( * ) PLANE_ANGLE_UNIT ( ) SI_UNIT ( $, .RADIAN. ) );
#36 = PLANE ( 'NONE',  #130 ) ;
#37 = CC_DESIGN_DATE_AND_TIME_ASSIGNMENT ( #264, #68, ( #253 ) ) ;
#38 = CYLINDRICAL_SURFACE ( 'NONE', #62, 6.000000000000000888 ) ;
#39 = APPROVAL_DATE_TIME ( #14, #61 ) ;
#40 = AXIS2_PLACEMENT_3D ( 'NONE', #9, #242, #131 ) ;
#41 = EDGE_LOOP ( 'NONE', ( #210, #222, #110, #43 ) ) ;
#42 = EDGE_LOOP ( 'NONE', ( #186, #270, #143, #83 ) ) ;
#43 = ORIENTED_EDGE ( 'NONE', *, *, #174, .F. ) ;
#44 = ORIENTED_EDGE ( 'NONE', *, *, #50, .F. ) ;
#45 = LOCAL_TIME ( 14, 41, 55.00000000000000000, #297 ) ;
#46 = CARTESIAN_POINT ( 'NONE',  ( 0.000000000000000000, 0.000000000000000000, 5.199999999999982414 ) ) ;
#47 = LINE ( 'NONE', #283, #27 ) ;
#48 = DIRECTION ( 'NONE',  ( 1.000000000000000000, 0.000000000000000000, 0.000000000000000000 ) ) ;
#49 = AXIS2_PLACEMENT_3D ( 'NONE', #289, #80, #285 ) ;
#50 = EDGE_CURVE ( 'NONE', #208, #225, #47, .T. ) ;
#51 = PLANE ( 'NONE',  #124 ) ;
#52 = DIRECTION ( 'NONE',  ( 1.000000000000000000, 0.000000000000000000, -0.000000000000000000 ) ) ;
#53 = CARTESIAN_POINT ( 'NONE',  ( 0.000000000000000000, 0.000000000000000000, 0.000000000000000000 ) ) ;
#54 = LOCAL_TIME ( 14, 41, 55.00000000000000000, #271 ) ;
#55 = DIRECTION ( 'NONE',  ( 0.000000000000000000, 0.000000000000000000, 1.000000000000000000 ) ) ;
#56 = CARTESIAN_POINT ( 'NONE',  ( -6.000000000000000888, 0.000000000000000000, 0.000000000000000000 ) ) ;
#57 = AXIS2_PLACEMENT_3D ( 'NONE', #196, #284, #197 ) ;
#58 = SHAPE_DEFINITION_REPRESENTATION ( #189, #293 ) ;
#59 = ORIENTED_EDGE ( 'NONE', *, *, #158, .T. ) ;
#60 = APPROVAL_STATUS ( 'not_yet_approved' ) ;
#61 = APPROVAL ( #224, 'NEURÈENÝ' ) ;
#62 = AXIS2_PLACEMENT_3D ( 'NONE', #94, #147, #276 ) ;
#63 = APPROVAL_ROLE ( '' ) ;
#64 = CIRCLE ( 'NONE', #241, 3.200000000000000622 ) ;
#65 = ORIENTED_EDGE ( 'NONE', *, *, #174, .T. ) ;
#66 = COORDINATED_UNIVERSAL_TIME_OFFSET ( 1, 0, .AHEAD. ) ;
#67 = ORIENTED_EDGE ( 'NONE', *, *, #76, .T. ) ;
#68 = DATE_TIME_ROLE ( 'classification_date' ) ;
#69 = ORIENTED_EDGE ( 'NONE', *, *, #76, .F. ) ;
#70 = TOROIDAL_SURFACE ( 'NONE', #304, 3.200000000000000622, 0.2000000000000000111 ) ;
#71 = DIRECTION ( 'NONE',  ( 0.000000000000000000, 0.000000000000000000, 1.000000000000000000 ) ) ;
#72 = CARTESIAN_POINT ( 'NONE',  ( 0.000000000000000000, 0.000000000000000000, 5.199999999999982414 ) ) ;
#73 = CARTESIAN_POINT ( 'NONE',  ( 0.000000000000000000, 0.000000000000000000, 320.0000000000000000 ) ) ;
#74 = DIRECTION ( 'NONE',  ( 1.000000000000000000, 0.000000000000000000, 0.000000000000000000 ) ) ;
#75 = DIRECTION ( 'NONE',  ( 0.000000000000000000, 0.000000000000000000, 1.000000000000000000 ) ) ;
#76 = EDGE_CURVE ( 'NONE', #296, #117, #1, .T. ) ;
#77 = DIRECTION ( 'NONE',  ( 0.000000000000000000, 0.000000000000000000, 1.000000000000000000 ) ) ;
#78 = DIRECTION ( 'NONE',  ( 1.000000000000000000, 0.000000000000000000, 0.000000000000000000 ) ) ;
#79 = ADVANCED_FACE ( 'NONE', ( #146 ), #151, .T. ) ;
#80 = DIRECTION ( 'NONE',  ( 0.000000000000000000, 0.000000000000000000, 1.000000000000000000 ) ) ;
#81 = APPROVAL_PERSON_ORGANIZATION ( #107, #19, #11 ) ;
#82 = PERSON_AND_ORGANIZATION_ROLE ( 'classification_officer' ) ;
#83 = ORIENTED_EDGE ( 'NONE', *, *, #299, .F. ) ;
#84 = CALENDAR_DATE ( 2022, 7, 7 ) ;
#85 = ORIENTED_EDGE ( 'NONE', *, *, #277, .F. ) ;
#86 = CALENDAR_DATE ( 2022, 7, 7 ) ;
#87 = ORIENTED_EDGE ( 'NONE', *, *, #166, .F. ) ;
#88 = LOCAL_TIME ( 14, 41, 55.00000000000000000, #183 ) ;
#89 = VERTEX_POINT ( 'NONE', #172 ) ;
#90 = PERSON_AND_ORGANIZATION ( #173, #22 ) ;
#91 = VERTEX_POINT ( 'NONE', #259 ) ;
#92 = CARTESIAN_POINT ( 'NONE',  ( 3.200000000000000622, 0.000000000000000000, 4.999999999999991118 ) ) ;
#93 = FACE_OUTER_BOUND ( 'NONE', #298, .T. ) ;
#94 = CARTESIAN_POINT ( 'NONE',  ( 0.000000000000000000, 0.000000000000000000, 5.000000000000000000 ) ) ;
#95 = CARTESIAN_POINT ( 'NONE',  ( 0.000000000000000000, 0.000000000000000000, 5.199999999999982414 ) ) ;
#96 = DIRECTION ( 'NONE',  ( 0.000000000000000000, 0.000000000000000000, 1.000000000000000000 ) ) ;
#97 = CIRCLE ( 'NONE', #177, 3.000000000000000444 ) ;
#98 = DIRECTION ( 'NONE',  ( 1.000000000000000000, 0.000000000000000000, -0.000000000000000000 ) ) ;
#99 = CC_DESIGN_PERSON_AND_ORGANIZATION_ASSIGNMENT ( #292, #82, ( #253 ) ) ;
#100 = DIRECTION ( 'NONE',  ( 1.000000000000000000, 0.000000000000000000, 0.000000000000000000 ) ) ;
#101 = DIRECTION ( 'NONE',  ( 0.000000000000000000, 0.000000000000000000, 1.000000000000000000 ) ) ;
#102 = AXIS2_PLACEMENT_3D ( 'NONE', #219, #106, #198 ) ;
#103 = APPROVAL_PERSON_ORGANIZATION ( #136, #61, #16 ) ;
#104 = FACE_OUTER_BOUND ( 'NONE', #163, .T. ) ;
#105 = ADVANCED_FACE ( 'NONE', ( #125 ), #156, .F. ) ;
#106 = DIRECTION ( 'NONE',  ( 0.000000000000000000, 0.000000000000000000, 1.000000000000000000 ) ) ;
#107 = PERSON_AND_ORGANIZATION ( #173, #22 ) ;
#108 = ORIENTED_EDGE ( 'NONE', *, *, #277, .T. ) ;
#109 = APPROVAL_DATE_TIME ( #132, #116 ) ;
#110 = ORIENTED_EDGE ( 'NONE', *, *, #299, .T. ) ;
#111 = ORIENTED_EDGE ( 'NONE', *, *, #50, .T. ) ;
#112 = AXIS2_PLACEMENT_3D ( 'NONE', #5, #101, #199 ) ;
#113 = DATE_TIME_ROLE ( 'creation_date' ) ;
#114 = CIRCLE ( 'NONE', #49, 3.000000000000000444 ) ;
#115 = VERTEX_POINT ( 'NONE', #92 ) ;
#116 = APPROVAL ( #60, 'NEURÈENÝ' ) ;
#117 = VERTEX_POINT ( 'NONE', #232 ) ;
#118 = DIRECTION ( 'NONE',  ( -0.000000000000000000, -0.000000000000000000, -1.000000000000000000 ) ) ;
#119 = CC_DESIGN_DATE_AND_TIME_ASSIGNMENT ( #295, #113, ( #273 ) ) ;
#120 = DIRECTION ( 'NONE',  ( 1.000000000000000000, 0.000000000000000000, 0.000000000000000000 ) ) ;
#121 = AXIS2_PLACEMENT_3D ( 'NONE', #53, #30, #238 ) ;
#122 = CARTESIAN_POINT ( 'NONE',  ( 0.000000000000000000, 0.000000000000000000, 5.000000000000000000 ) ) ;
#123 = DIRECTION ( 'NONE',  ( 1.000000000000000000, 0.000000000000000000, 0.000000000000000000 ) ) ;
#124 = AXIS2_PLACEMENT_3D ( 'NONE', #20, #96, #52 ) ;
#125 = FACE_OUTER_BOUND ( 'NONE', #41, .T. ) ;
#126 = AXIS2_PLACEMENT_3D ( 'NONE', #307, #230, #74 ) ;
#127 = PRODUCT_RELATED_PRODUCT_CATEGORY ( 'detail', '', ( #171 ) ) ;
#128 = DIRECTION ( 'NONE',  ( 1.224646799147353207E-16, 1.000000000000000000, -0.000000000000000000 ) ) ;
#129 = VECTOR ( 'NONE', #195, 1000.000000000000000 ) ;
#130 = AXIS2_PLACEMENT_3D ( 'NONE', #176, #3, #98 ) ;
#131 = DIRECTION ( 'NONE',  ( 0.000000000000000000, 0.000000000000000000, -1.000000000000000000 ) ) ;
#132 = DATE_AND_TIME ( #84, #88 ) ;
#133 = EDGE_CURVE ( 'NONE', #208, #89, #200, .T. ) ;
#134 = CLOSED_SHELL ( 'NONE', ( #141, #79, #145, #24, #31, #263, #187, #226, #105 ) ) ;
#135 = LOCAL_TIME ( 14, 41, 55.00000000000000000, #66 ) ;
#136 = PERSON_AND_ORGANIZATION ( #173, #22 ) ;
#137 = ORIENTED_EDGE ( 'NONE', *, *, #155, .T. ) ;
#138 = DESIGN_CONTEXT ( 'detailed design', #243, 'design' ) ;
#139 = PERSON_AND_ORGANIZATION_ROLE ( 'creator' ) ;
#140 = EDGE_LOOP ( 'NONE', ( #165, #265 ) ) ;
#141 = ADVANCED_FACE ( 'NONE', ( #28 ), #70, .F. ) ;
#142 = AXIS2_PLACEMENT_3D ( 'NONE', #211, #305, #235 ) ;
#143 = ORIENTED_EDGE ( 'NONE', *, *, #209, .F. ) ;
#144 = LINE ( 'NONE', #21, #129 ) ;
#145 = ADVANCED_FACE ( 'NONE', ( #93 ), #281, .T. ) ;
#146 = FACE_OUTER_BOUND ( 'NONE', #160, .T. ) ;
#147 = DIRECTION ( 'NONE',  ( -0.000000000000000000, -0.000000000000000000, -1.000000000000000000 ) ) ;
#148 =( GEOMETRIC_REPRESENTATION_CONTEXT ( 3 ) GLOBAL_UNCERTAINTY_ASSIGNED_CONTEXT ( ( #266 ) ) GLOBAL_UNIT_ASSIGNED_CONTEXT ( ( #33, #35, #262 ) ) REPRESENTATION_CONTEXT ( 'NONE', 'WORKASPACE' ) );
#149 = CC_DESIGN_PERSON_AND_ORGANIZATION_ASSIGNMENT ( #261, #179, ( #171 ) ) ;
#150 = FACE_BOUND ( 'NONE', #184, .T. ) ;
#151 = CYLINDRICAL_SURFACE ( 'NONE', #142, 3.000000000000000444 ) ;
#152 = CARTESIAN_POINT ( 'NONE',  ( -3.200000000000000622, 3.918869757271530953E-16, 4.999999999999991118 ) ) ;
#153 = CIRCLE ( 'NONE', #40, 0.1999999999999996503 ) ;
#154 = MECHANICAL_CONTEXT ( 'NONE', #8, 'mechanical' ) ;
#155 = EDGE_CURVE ( 'NONE', #91, #249, #167, .T. ) ;
#156 = TOROIDAL_SURFACE ( 'NONE', #280, 3.200000000000000622, 0.2000000000000000111 ) ;
#157 = CARTESIAN_POINT ( 'NONE',  ( 0.000000000000000000, 0.000000000000000000, 320.0000000000000000 ) ) ;
#158 = EDGE_CURVE ( 'NONE', #117, #249, #268, .T. ) ;
#159 = DIRECTION ( 'NONE',  ( -1.000000000000000000, 1.224646799147353207E-16, 0.000000000000000000 ) ) ;
#160 = EDGE_LOOP ( 'NONE', ( #15, #67, #59, #180 ) ) ;
#161 = APPROVAL_PERSON_ORGANIZATION ( #10, #116, #63 ) ;
#162 = ORIENTED_EDGE ( 'NONE', *, *, #282, .T. ) ;
#163 = EDGE_LOOP ( 'NONE', ( #85, #18 ) ) ;
#164 = CC_DESIGN_PERSON_AND_ORGANIZATION_ASSIGNMENT ( #252, #181, ( #12 ) ) ;
#165 = ORIENTED_EDGE ( 'NONE', *, *, #133, .T. ) ;
#166 = EDGE_CURVE ( 'NONE', #89, #251, #144, .T. ) ;
#167 = LINE ( 'NONE', #234, #231 ) ;
#168 = FACE_OUTER_BOUND ( 'NONE', #140, .T. ) ;
#169 = DIRECTION ( 'NONE',  ( -0.000000000000000000, -0.000000000000000000, -1.000000000000000000 ) ) ;
#170 = AXIS2_PLACEMENT_3D ( 'NONE', #188, #191, #120 ) ;
#171 = PRODUCT ( 'f7d5', 'f7d5', '', ( #154 ) ) ;
#172 = CARTESIAN_POINT ( 'NONE',  ( 6.000000000000000888, 7.347880794884120722E-16, 5.000000000000000000 ) ) ;
#173 = PERSON ( 'NEURÈENÝ', 'NEURÈENÝ', 'NEURÈENÝ', ('NEURÈENÝ'), ('NEURÈENÝ'), ('NEURÈENÝ') ) ;
#174 = EDGE_CURVE ( 'NONE', #227, #115, #212, .T. ) ;
#175 = CARTESIAN_POINT ( 'NONE',  ( -3.200000000000000622, 3.918869757271530953E-16, 5.199999999999982414 ) ) ;
#176 = CARTESIAN_POINT ( 'NONE',  ( 0.000000000000000000, 0.000000000000000000, 0.000000000000000000 ) ) ;
#177 = AXIS2_PLACEMENT_3D ( 'NONE', #157, #77, #78 ) ;
#178 = CIRCLE ( 'NONE', #217, 6.000000000000000888 ) ;
#179 = PERSON_AND_ORGANIZATION_ROLE ( 'design_owner' ) ;
#180 = ORIENTED_EDGE ( 'NONE', *, *, #155, .F. ) ;
#181 = PERSON_AND_ORGANIZATION_ROLE ( 'design_supplier' ) ;
#182 = ORIENTED_EDGE ( 'NONE', *, *, #223, .T. ) ;
#183 = COORDINATED_UNIVERSAL_TIME_OFFSET ( 1, 0, .AHEAD. ) ;
#184 = EDGE_LOOP ( 'NONE', ( #17, #65 ) ) ;
#185 = SECURITY_CLASSIFICATION_LEVEL ( 'unclassified' ) ;
#186 = ORIENTED_EDGE ( 'NONE', *, *, #220, .F. ) ;
#187 = ADVANCED_FACE ( 'NONE', ( #279 ), #215, .T. ) ;
#188 = CARTESIAN_POINT ( 'NONE',  ( 0.000000000000000000, 0.000000000000000000, 5.000000000000000000 ) ) ;
#189 = PRODUCT_DEFINITION_SHAPE ( 'NONE', 'NONE',  #273 ) ;
#190 = AXIS2_PLACEMENT_3D ( 'NONE', #73, #169, #23 ) ;
#191 = DIRECTION ( 'NONE',  ( 0.000000000000000000, 0.000000000000000000, 1.000000000000000000 ) ) ;
#192 = CARTESIAN_POINT ( 'NONE',  ( 0.000000000000000000, 0.000000000000000000, 5.000000000000000000 ) ) ;
#193 = DIRECTION ( 'NONE',  ( 0.000000000000000000, 0.000000000000000000, 1.000000000000000000 ) ) ;
#194 = CIRCLE ( 'NONE', #57, 6.000000000000000888 ) ;
#195 = DIRECTION ( 'NONE',  ( -0.000000000000000000, -0.000000000000000000, -1.000000000000000000 ) ) ;
#196 = CARTESIAN_POINT ( 'NONE',  ( 0.000000000000000000, 0.000000000000000000, 5.000000000000000000 ) ) ;
#197 = DIRECTION ( 'NONE',  ( 1.000000000000000000, 0.000000000000000000, 0.000000000000000000 ) ) ;
#198 = DIRECTION ( 'NONE',  ( 1.000000000000000000, 0.000000000000000000, 0.000000000000000000 ) ) ;
#199 = DIRECTION ( 'NONE',  ( 1.000000000000000000, 0.000000000000000000, -0.000000000000000000 ) ) ;
#200 = CIRCLE ( 'NONE', #170, 6.000000000000000888 ) ;
#201 = CALENDAR_DATE ( 2022, 7, 7 ) ;
#202 = APPLICATION_PROTOCOL_DEFINITION ( 'international standard', 'config_control_design', 1994, #243 ) ;
#203 = EDGE_LOOP ( 'NONE', ( #13, #162 ) ) ;
#204 = CC_DESIGN_PERSON_AND_ORGANIZATION_ASSIGNMENT ( #207, #250, ( #12 ) ) ;
#205 = DATE_AND_TIME ( #221, #54 ) ;
#206 = ORIENTED_EDGE ( 'NONE', *, *, #220, .T. ) ;
#207 = PERSON_AND_ORGANIZATION ( #173, #22 ) ;
#208 = VERTEX_POINT ( 'NONE', #257 ) ;
#209 = EDGE_CURVE ( 'NONE', #115, #227, #64, .T. ) ;
#210 = ORIENTED_EDGE ( 'NONE', *, *, #291, .F. ) ;
#211 = CARTESIAN_POINT ( 'NONE',  ( 0.000000000000000000, 0.000000000000000000, 320.0000000000000000 ) ) ;
#212 = CIRCLE ( 'NONE', #126, 3.200000000000000622 ) ;
#213 = DIRECTION ( 'NONE',  ( -1.000000000000000000, 0.000000000000000000, 0.000000000000000000 ) ) ;
#214 = DIRECTION ( 'NONE',  ( -0.000000000000000000, -0.000000000000000000, -1.000000000000000000 ) ) ;
#215 = CYLINDRICAL_SURFACE ( 'NONE', #190, 3.000000000000000444 ) ;
#216 = CARTESIAN_POINT ( 'NONE',  ( -3.000000000000000444, 0.000000000000000000, 5.199999999999982414 ) ) ;
#217 = AXIS2_PLACEMENT_3D ( 'NONE', #239, #55, #240 ) ;
#218 = CC_DESIGN_PERSON_AND_ORGANIZATION_ASSIGNMENT ( #90, #139, ( #273 ) ) ;
#219 = CARTESIAN_POINT ( 'NONE',  ( 0.000000000000000000, 0.000000000000000000, 0.000000000000000000 ) ) ;
#220 = EDGE_CURVE ( 'NONE', #249, #117, #246, .T. ) ;
#221 = CALENDAR_DATE ( 2022, 7, 7 ) ;
#222 = ORIENTED_EDGE ( 'NONE', *, *, #158, .F. ) ;
#223 = EDGE_CURVE ( 'NONE', #251, #225, #29, .T. ) ;
#224 = APPROVAL_STATUS ( 'not_yet_approved' ) ;
#225 = VERTEX_POINT ( 'NONE', #56 ) ;
#226 = ADVANCED_FACE ( 'NONE', ( #32 ), #7, .T. ) ;
#227 = VERTEX_POINT ( 'NONE', #152 ) ;
#228 = AXIS2_PLACEMENT_3D ( 'NONE', #258, #237, #100 ) ;
#229 = CIRCLE ( 'NONE', #300, 0.2000000000000000944 ) ;
#230 = DIRECTION ( 'NONE',  ( -0.000000000000000000, -0.000000000000000000, -1.000000000000000000 ) ) ;
#231 = VECTOR ( 'NONE', #254, 1000.000000000000000 ) ;
#232 = CARTESIAN_POINT ( 'NONE',  ( 3.000000000000000444, 3.673940397442060361E-16, 5.199999999999982414 ) ) ;
#233 = CARTESIAN_POINT ( 'NONE',  ( 3.000000000000000444, 3.673940397442060361E-16, 320.0000000000000000 ) ) ;
#234 = CARTESIAN_POINT ( 'NONE',  ( -3.000000000000000444, 0.000000000000000000, 320.0000000000000000 ) ) ;
#235 = DIRECTION ( 'NONE',  ( -1.000000000000000000, 0.000000000000000000, 0.000000000000000000 ) ) ;
#236 = EDGE_CURVE ( 'NONE', #89, #208, #194, .T. ) ;
#237 = DIRECTION ( 'NONE',  ( 0.000000000000000000, 0.000000000000000000, 1.000000000000000000 ) ) ;
#238 = DIRECTION ( 'NONE',  ( 1.000000000000000000, 0.000000000000000000, 0.000000000000000000 ) ) ;
#239 = CARTESIAN_POINT ( 'NONE',  ( 0.000000000000000000, 0.000000000000000000, 0.000000000000000000 ) ) ;
#240 = DIRECTION ( 'NONE',  ( 1.000000000000000000, 0.000000000000000000, 0.000000000000000000 ) ) ;
#241 = AXIS2_PLACEMENT_3D ( 'NONE', #122, #214, #48 ) ;
#242 = DIRECTION ( 'NONE',  ( 0.000000000000000000, -1.000000000000000000, 0.000000000000000000 ) ) ;
#243 = APPLICATION_CONTEXT ( 'configuration controlled 3d designs of mechanical parts and assemblies' ) ;
#244 = FACE_OUTER_BOUND ( 'NONE', #302, .T. ) ;
#245 = ORIENTED_EDGE ( 'NONE', *, *, #166, .T. ) ;
#246 = CIRCLE ( 'NONE', #228, 3.000000000000000444 ) ;
#247 = LOCAL_TIME ( 14, 41, 55.00000000000000000, #274 ) ;
#248 = APPROVAL_STATUS ( 'not_yet_approved' ) ;
#249 = VERTEX_POINT ( 'NONE', #216 ) ;
#250 = PERSON_AND_ORGANIZATION_ROLE ( 'creator' ) ;
#251 = VERTEX_POINT ( 'NONE', #287 ) ;
#252 = PERSON_AND_ORGANIZATION ( #173, #22 ) ;
#253 = SECURITY_CLASSIFICATION ( '', '', #185 ) ;
#254 = DIRECTION ( 'NONE',  ( -0.000000000000000000, -0.000000000000000000, -1.000000000000000000 ) ) ;
#255 = DIRECTION ( 'NONE',  ( 1.000000000000000000, 0.000000000000000000, 0.000000000000000000 ) ) ;
#256 = EDGE_CURVE ( 'NONE', #91, #296, #97, .T. ) ;
#257 = CARTESIAN_POINT ( 'NONE',  ( -6.000000000000000888, 0.000000000000000000, 5.000000000000000000 ) ) ;
#258 = CARTESIAN_POINT ( 'NONE',  ( 0.000000000000000000, 0.000000000000000000, 5.199999999999982414 ) ) ;
#259 = CARTESIAN_POINT ( 'NONE',  ( -3.000000000000000444, 0.000000000000000000, 320.0000000000000000 ) ) ;
#260 = CARTESIAN_POINT ( 'NONE',  ( 3.000000000000000444, 3.673940397442060361E-16, 320.0000000000000000 ) ) ;
#261 = PERSON_AND_ORGANIZATION ( #173, #22 ) ;
#262 =( NAMED_UNIT ( * ) SI_UNIT ( $, .STERADIAN. ) SOLID_ANGLE_UNIT ( ) );
#263 = ADVANCED_FACE ( 'NONE', ( #104 ), #36, .F. ) ;
#264 = DATE_AND_TIME ( #269, #247 ) ;
#265 = ORIENTED_EDGE ( 'NONE', *, *, #236, .T. ) ;
#266 = UNCERTAINTY_MEASURE_WITH_UNIT (LENGTH_MEASURE( 1.000000000000000082E-05 ), #33, 'distance_accuracy_value', 'NONE');
#267 = ORIENTED_EDGE ( 'NONE', *, *, #256, .F. ) ;
#268 = CIRCLE ( 'NONE', #6, 3.000000000000000444 ) ;
#269 = CALENDAR_DATE ( 2022, 7, 7 ) ;
#270 = ORIENTED_EDGE ( 'NONE', *, *, #291, .T. ) ;
#271 = COORDINATED_UNIVERSAL_TIME_OFFSET ( 1, 0, .AHEAD. ) ;
#272 = EDGE_LOOP ( 'NONE', ( #69, #267, #137, #206 ) ) ;
#273 = PRODUCT_DEFINITION ( 'NEZNÁMÝ', '', #12, #138 ) ;
#274 = COORDINATED_UNIVERSAL_TIME_OFFSET ( 1, 0, .AHEAD. ) ;
#275 = ORIENTED_EDGE ( 'NONE', *, *, #133, .F. ) ;
#276 = DIRECTION ( 'NONE',  ( -1.000000000000000000, 0.000000000000000000, 0.000000000000000000 ) ) ;
#277 = EDGE_CURVE ( 'NONE', #225, #251, #178, .T. ) ;
#278 = DIRECTION ( 'NONE',  ( -0.000000000000000000, -0.000000000000000000, -1.000000000000000000 ) ) ;
#279 = FACE_OUTER_BOUND ( 'NONE', #272, .T. ) ;
#280 = AXIS2_PLACEMENT_3D ( 'NONE', #95, #75, #303 ) ;
#281 = CYLINDRICAL_SURFACE ( 'NONE', #286, 6.000000000000000888 ) ;
#282 = EDGE_CURVE ( 'NONE', #296, #91, #114, .T. ) ;
#283 = CARTESIAN_POINT ( 'NONE',  ( -6.000000000000000888, 0.000000000000000000, 5.000000000000000000 ) ) ;
#284 = DIRECTION ( 'NONE',  ( 0.000000000000000000, 0.000000000000000000, 1.000000000000000000 ) ) ;
#285 = DIRECTION ( 'NONE',  ( 1.000000000000000000, 0.000000000000000000, 0.000000000000000000 ) ) ;
#286 = AXIS2_PLACEMENT_3D ( 'NONE', #192, #26, #213 ) ;
#287 = CARTESIAN_POINT ( 'NONE',  ( 6.000000000000000888, 7.347880794884120722E-16, 0.000000000000000000 ) ) ;
#288 = CC_DESIGN_APPROVAL ( #61, ( #12 ) ) ;
#289 = CARTESIAN_POINT ( 'NONE',  ( 0.000000000000000000, 0.000000000000000000, 320.0000000000000000 ) ) ;
#290 = VECTOR ( 'NONE', #118, 1000.000000000000000 ) ;
#291 = EDGE_CURVE ( 'NONE', #249, #227, #229, .T. ) ;
#292 = PERSON_AND_ORGANIZATION ( #173, #22 ) ;
#293 = ADVANCED_BREP_SHAPE_REPRESENTATION ( 'f7d5', ( #25, #121 ), #148 ) ;
#294 = ORIENTED_EDGE ( 'NONE', *, *, #236, .F. ) ;
#295 = DATE_AND_TIME ( #86, #45 ) ;
#296 = VERTEX_POINT ( 'NONE', #260 ) ;
#297 = COORDINATED_UNIVERSAL_TIME_OFFSET ( 1, 0, .AHEAD. ) ;
#298 = EDGE_LOOP ( 'NONE', ( #294, #245, #182, #44 ) ) ;
#299 = EDGE_CURVE ( 'NONE', #117, #115, #153, .T. ) ;
#300 = AXIS2_PLACEMENT_3D ( 'NONE', #175, #128, #159 ) ;
#301 = APPROVAL_DATE_TIME ( #205, #19 ) ;
#302 = EDGE_LOOP ( 'NONE', ( #87, #275, #111, #108 ) ) ;
#303 = DIRECTION ( 'NONE',  ( 1.000000000000000000, 0.000000000000000000, 0.000000000000000000 ) ) ;
#304 = AXIS2_PLACEMENT_3D ( 'NONE', #72, #71, #255 ) ;
#305 = DIRECTION ( 'NONE',  ( -0.000000000000000000, -0.000000000000000000, -1.000000000000000000 ) ) ;
#306 = CC_DESIGN_APPROVAL ( #19, ( #273 ) ) ;
#307 = CARTESIAN_POINT ( 'NONE',  ( 0.000000000000000000, 0.000000000000000000, 5.000000000000000000 ) ) ;
ENDSEC;
END-ISO-10303-21;
