ISO-10303-21;
HEADER;
FILE_DESCRIPTION (( 'STEP AP203' ),
    '1' );
FILE_NAME ('230b.STEP',
    '2022-07-07T12:34:05',
    ( '' ),
    ( '' ),
    'SwSTEP 2.0',
    'SolidWorks 2019',
    '' );
FILE_SCHEMA (( 'CONFIG_CONTROL_DESIGN' ));
ENDSEC;

DATA;
#1 = APPLICATION_CONTEXT ( 'configuration controlled 3d designs of mechanical parts and assemblies' ) ;
#2 = MECHANICAL_CONTEXT ( 'NONE', #1, 'mechanical' ) ;
#3 = PERSON_AND_ORGANIZATION ( #275, #167 ) ;
#4 = EDGE_LOOP ( 'NONE', ( #162, #186 ) ) ;
#5 = AXIS2_PLACEMENT_3D ( 'NONE', #175, #221, #13 ) ;
#6 = LOCAL_TIME ( 14, 34, 5.000000000000000000, #258 ) ;
#7 = VERTEX_POINT ( 'NONE', #124 ) ;
#8 = ADVANCED_FACE ( 'NONE', ( #15 ), #298, .T. ) ;
#9 = DIRECTION ( 'NONE',  ( -0.000000000000000000, -0.000000000000000000, -1.000000000000000000 ) ) ;
#10 = PLANE ( 'NONE',  #5 ) ;
#11 = AXIS2_PLACEMENT_3D ( 'NONE', #169, #269, #190 ) ;
#12 = EDGE_CURVE ( 'NONE', #281, #268, #288, .T. ) ;
#13 = DIRECTION ( 'NONE',  ( 1.000000000000000000, 0.000000000000000000, -0.000000000000000000 ) ) ;
#14 = PRODUCT ( '230b', '230b', '', ( #2 ) ) ;
#15 = FACE_OUTER_BOUND ( 'NONE', #140, .T. ) ;
#16 = ORIENTED_EDGE ( 'NONE', *, *, #12, .F. ) ;
#17 = VECTOR ( 'NONE', #45, 1000.000000000000000 ) ;
#18 = CYLINDRICAL_SURFACE ( 'NONE', #86, 7.000000000000000000 ) ;
#19 = FACE_OUTER_BOUND ( 'NONE', #79, .T. ) ;
#20 = CARTESIAN_POINT ( 'NONE',  ( 0.000000000000000000, 0.000000000000000000, 320.0000000000000000 ) ) ;
#21 = DIRECTION ( 'NONE',  ( -1.000000000000000000, 1.224646799147353454E-16, 0.000000000000000000 ) ) ;
#22 = AXIS2_PLACEMENT_3D ( 'NONE', #87, #179, #62 ) ;
#23 = APPLICATION_CONTEXT ( 'configuration controlled 3d designs of mechanical parts and assemblies' ) ;
#24 = PERSON_AND_ORGANIZATION ( #275, #167 ) ;
#25 = PERSON_AND_ORGANIZATION_ROLE ( 'creator' ) ;
#26 = PERSON_AND_ORGANIZATION ( #275, #167 ) ;
#27 = VERTEX_POINT ( 'NONE', #170 ) ;
#28 = ADVANCED_FACE ( 'NONE', ( #107 ), #150, .T. ) ;
#29 =( NAMED_UNIT ( * ) PLANE_ANGLE_UNIT ( ) SI_UNIT ( $, .RADIAN. ) );
#30 = ORIENTED_EDGE ( 'NONE', *, *, #220, .F. ) ;
#31 =( LENGTH_UNIT ( ) NAMED_UNIT ( * ) SI_UNIT ( .MILLI., .METRE. ) );
#32 = VERTEX_POINT ( 'NONE', #218 ) ;
#33 = VECTOR ( 'NONE', #158, 1000.000000000000000 ) ;
#34 = ORIENTED_EDGE ( 'NONE', *, *, #199, .F. ) ;
#35 = CARTESIAN_POINT ( 'NONE',  ( 0.000000000000000000, 0.000000000000000000, 5.000000000000000000 ) ) ;
#36 = CARTESIAN_POINT ( 'NONE',  ( 0.000000000000000000, 0.000000000000000000, 320.0000000000000000 ) ) ;
#37 = ORIENTED_EDGE ( 'NONE', *, *, #108, .T. ) ;
#38 = DESIGN_CONTEXT ( 'detailed design', #23, 'design' ) ;
#39 = DIRECTION ( 'NONE',  ( 1.000000000000000000, 0.000000000000000000, 0.000000000000000000 ) ) ;
#40 = AXIS2_PLACEMENT_3D ( 'NONE', #46, #157, #253 ) ;
#41 = DIRECTION ( 'NONE',  ( -0.000000000000000000, -0.000000000000000000, -1.000000000000000000 ) ) ;
#42 =( GEOMETRIC_REPRESENTATION_CONTEXT ( 3 ) GLOBAL_UNCERTAINTY_ASSIGNED_CONTEXT ( ( #93 ) ) GLOBAL_UNIT_ASSIGNED_CONTEXT ( ( #31, #29, #161 ) ) REPRESENTATION_CONTEXT ( 'NONE', 'WORKASPACE' ) );
#43 = CARTESIAN_POINT ( 'NONE',  ( 0.000000000000000000, 0.000000000000000000, 5.000000000000000000 ) ) ;
#44 = EDGE_CURVE ( 'NONE', #281, #82, #126, .T. ) ;
#45 = DIRECTION ( 'NONE',  ( -0.000000000000000000, -0.000000000000000000, -1.000000000000000000 ) ) ;
#46 = CARTESIAN_POINT ( 'NONE',  ( 0.000000000000000000, 0.000000000000000000, 5.199999999999982414 ) ) ;
#47 = AXIS2_PLACEMENT_3D ( 'NONE', #84, #176, #271 ) ;
#48 = PERSON_AND_ORGANIZATION ( #275, #167 ) ;
#49 = PERSON_AND_ORGANIZATION ( #275, #167 ) ;
#50 = EDGE_LOOP ( 'NONE', ( #291, #285 ) ) ;
#51 = TOROIDAL_SURFACE ( 'NONE', #222, 4.200000000000000178, 0.2000000000000000111 ) ;
#52 = PERSON_AND_ORGANIZATION_ROLE ( 'design_owner' ) ;
#53 = VERTEX_POINT ( 'NONE', #267 ) ;
#54 = CALENDAR_DATE ( 2022, 7, 7 ) ;
#55 = CC_DESIGN_PERSON_AND_ORGANIZATION_ASSIGNMENT ( #49, #52, ( #14 ) ) ;
#56 = CARTESIAN_POINT ( 'NONE',  ( 0.000000000000000000, 0.000000000000000000, 0.000000000000000000 ) ) ;
#57 = ORIENTED_EDGE ( 'NONE', *, *, #108, .F. ) ;
#58 = ORIENTED_EDGE ( 'NONE', *, *, #270, .F. ) ;
#59 = CARTESIAN_POINT ( 'NONE',  ( 0.000000000000000000, 0.000000000000000000, 0.000000000000000000 ) ) ;
#60 = ORIENTED_EDGE ( 'NONE', *, *, #100, .T. ) ;
#61 = FACE_OUTER_BOUND ( 'NONE', #184, .T. ) ;
#62 = DIRECTION ( 'NONE',  ( 1.000000000000000000, 0.000000000000000000, 0.000000000000000000 ) ) ;
#63 = AXIS2_PLACEMENT_3D ( 'NONE', #20, #152, #200 ) ;
#64 = CARTESIAN_POINT ( 'NONE',  ( 0.000000000000000000, 0.000000000000000000, 5.199999999999982414 ) ) ;
#65 = FACE_OUTER_BOUND ( 'NONE', #129, .T. ) ;
#66 = DIRECTION ( 'NONE',  ( 1.000000000000000000, 0.000000000000000000, 0.000000000000000000 ) ) ;
#67 = CALENDAR_DATE ( 2022, 7, 7 ) ;
#68 = AXIS2_PLACEMENT_3D ( 'NONE', #135, #303, #109 ) ;
#69 = ORIENTED_EDGE ( 'NONE', *, *, #168, .T. ) ;
#70 = CC_DESIGN_SECURITY_CLASSIFICATION ( #203, ( #227 ) ) ;
#71 = CALENDAR_DATE ( 2022, 7, 7 ) ;
#72 = ORIENTED_EDGE ( 'NONE', *, *, #44, .T. ) ;
#73 = PERSON_AND_ORGANIZATION_ROLE ( 'design_supplier' ) ;
#74 = ORIENTED_EDGE ( 'NONE', *, *, #286, .F. ) ;
#75 = DATE_AND_TIME ( #71, #111 ) ;
#76 = ORIENTED_EDGE ( 'NONE', *, *, #100, .F. ) ;
#77 = AXIS2_PLACEMENT_3D ( 'NONE', #130, #112, #230 ) ;
#78 = ADVANCED_FACE ( 'NONE', ( #265, #146 ), #10, .T. ) ;
#79 = EDGE_LOOP ( 'NONE', ( #30, #214, #166, #34 ) ) ;
#80 = CARTESIAN_POINT ( 'NONE',  ( 0.000000000000000000, 0.000000000000000000, 320.0000000000000000 ) ) ;
#81 = DIRECTION ( 'NONE',  ( -0.000000000000000000, -0.000000000000000000, -1.000000000000000000 ) ) ;
#82 = VERTEX_POINT ( 'NONE', #296 ) ;
#83 = DIRECTION ( 'NONE',  ( 1.000000000000000000, 0.000000000000000000, 0.000000000000000000 ) ) ;
#84 = CARTESIAN_POINT ( 'NONE',  ( 0.000000000000000000, 0.000000000000000000, 5.199999999999982414 ) ) ;
#85 = EDGE_CURVE ( 'NONE', #53, #32, #232, .T. ) ;
#86 = AXIS2_PLACEMENT_3D ( 'NONE', #43, #204, #178 ) ;
#87 = CARTESIAN_POINT ( 'NONE',  ( 0.000000000000000000, 0.000000000000000000, 5.000000000000000000 ) ) ;
#88 = CC_DESIGN_PERSON_AND_ORGANIZATION_ASSIGNMENT ( #26, #73, ( #227 ) ) ;
#89 = CARTESIAN_POINT ( 'NONE',  ( 0.000000000000000000, 0.000000000000000000, 5.199999999999982414 ) ) ;
#90 = CARTESIAN_POINT ( 'NONE',  ( 4.000000000000000000, 4.898587196589412829E-16, 320.0000000000000000 ) ) ;
#91 = DIRECTION ( 'NONE',  ( 0.000000000000000000, 0.000000000000000000, 1.000000000000000000 ) ) ;
#92 = DIRECTION ( 'NONE',  ( 1.224646799147353207E-16, 1.000000000000000000, -0.000000000000000000 ) ) ;
#93 = UNCERTAINTY_MEASURE_WITH_UNIT (LENGTH_MEASURE( 1.000000000000000082E-05 ), #31, 'distance_accuracy_value', 'NONE');
#94 = DIRECTION ( 'NONE',  ( 1.000000000000000000, 0.000000000000000000, 0.000000000000000000 ) ) ;
#95 = AXIS2_PLACEMENT_3D ( 'NONE', #231, #92, #21 ) ;
#96 = ORIENTED_EDGE ( 'NONE', *, *, #297, .T. ) ;
#97 = APPLICATION_PROTOCOL_DEFINITION ( 'international standard', 'config_control_design', 1994, #1 ) ;
#98 = ORIENTED_EDGE ( 'NONE', *, *, #215, .F. ) ;
#99 = PERSON_AND_ORGANIZATION_ROLE ( 'classification_officer' ) ;
#100 = EDGE_CURVE ( 'NONE', #32, #53, #101, .T. ) ;
#101 = CIRCLE ( 'NONE', #154, 7.000000000000000000 ) ;
#102 = LOCAL_TIME ( 14, 34, 5.000000000000000000, #120 ) ;
#103 = ORIENTED_EDGE ( 'NONE', *, *, #286, .T. ) ;
#104 = ADVANCED_FACE ( 'NONE', ( #246 ), #128, .T. ) ;
#105 = CARTESIAN_POINT ( 'NONE',  ( 4.000000000000000000, 4.898587196589412829E-16, 320.0000000000000000 ) ) ;
#106 = DIRECTION ( 'NONE',  ( -0.000000000000000000, -0.000000000000000000, -1.000000000000000000 ) ) ;
#107 = FACE_OUTER_BOUND ( 'NONE', #245, .T. ) ;
#108 = EDGE_CURVE ( 'NONE', #82, #7, #145, .T. ) ;
#109 = DIRECTION ( 'NONE',  ( 0.000000000000000000, 0.000000000000000000, -1.000000000000000000 ) ) ;
#110 = CIRCLE ( 'NONE', #180, 7.000000000000000000 ) ;
#111 = LOCAL_TIME ( 14, 34, 5.000000000000000000, #185 ) ;
#112 = DIRECTION ( 'NONE',  ( 0.000000000000000000, 0.000000000000000000, 1.000000000000000000 ) ) ;
#113 = CARTESIAN_POINT ( 'NONE',  ( -4.000000000000000000, 0.000000000000000000, 320.0000000000000000 ) ) ;
#114 = PLANE ( 'NONE',  #77 ) ;
#115 = AXIS2_PLACEMENT_3D ( 'NONE', #89, #254, #201 ) ;
#116 = CARTESIAN_POINT ( 'NONE',  ( 0.000000000000000000, 0.000000000000000000, 5.000000000000000000 ) ) ;
#117 = CC_DESIGN_PERSON_AND_ORGANIZATION_ASSIGNMENT ( #213, #99, ( #203 ) ) ;
#118 = DIRECTION ( 'NONE',  ( 1.000000000000000000, 0.000000000000000000, 0.000000000000000000 ) ) ;
#119 = SECURITY_CLASSIFICATION_LEVEL ( 'unclassified' ) ;
#120 = COORDINATED_UNIVERSAL_TIME_OFFSET ( 1, 0, .AHEAD. ) ;
#121 = APPROVAL_DATE_TIME ( #183, #202 ) ;
#122 = APPROVAL_ROLE ( '' ) ;
#123 = AXIS2_PLACEMENT_3D ( 'NONE', #238, #262, #94 ) ;
#124 = CARTESIAN_POINT ( 'NONE',  ( -4.000000000000000000, 0.000000000000000000, 5.199999999999982414 ) ) ;
#125 = DIRECTION ( 'NONE',  ( -1.000000000000000000, 0.000000000000000000, 0.000000000000000000 ) ) ;
#126 = LINE ( 'NONE', #105, #131 ) ;
#127 = CC_DESIGN_PERSON_AND_ORGANIZATION_ASSIGNMENT ( #48, #25, ( #227 ) ) ;
#128 = CYLINDRICAL_SURFACE ( 'NONE', #282, 4.000000000000000000 ) ;
#129 = EDGE_LOOP ( 'NONE', ( #284, #76 ) ) ;
#130 = CARTESIAN_POINT ( 'NONE',  ( 0.000000000000000000, 0.000000000000000000, 0.000000000000000000 ) ) ;
#131 = VECTOR ( 'NONE', #81, 1000.000000000000000 ) ;
#132 = MANIFOLD_SOLID_BREP ( 'Zaoblit1', #216 ) ;
#133 = CC_DESIGN_APPROVAL ( #202, ( #244 ) ) ;
#134 = CARTESIAN_POINT ( 'NONE',  ( 0.000000000000000000, 0.000000000000000000, 5.000000000000000000 ) ) ;
#135 = CARTESIAN_POINT ( 'NONE',  ( 4.200000000000000178, 0.000000000000000000, 5.199999999999982414 ) ) ;
#136 = APPROVAL ( #139, 'NEURÈENÝ' ) ;
#137 = DIRECTION ( 'NONE',  ( 0.000000000000000000, 0.000000000000000000, 1.000000000000000000 ) ) ;
#138 = COORDINATED_UNIVERSAL_TIME_OFFSET ( 1, 0, .AHEAD. ) ;
#139 = APPROVAL_STATUS ( 'not_yet_approved' ) ;
#140 = EDGE_LOOP ( 'NONE', ( #142, #144, #60, #98 ) ) ;
#141 = DATE_AND_TIME ( #211, #198 ) ;
#142 = ORIENTED_EDGE ( 'NONE', *, *, #297, .F. ) ;
#143 = DIRECTION ( 'NONE',  ( 0.000000000000000000, 0.000000000000000000, 1.000000000000000000 ) ) ;
#144 = ORIENTED_EDGE ( 'NONE', *, *, #247, .T. ) ;
#145 = CIRCLE ( 'NONE', #47, 4.000000000000000000 ) ;
#146 = FACE_OUTER_BOUND ( 'NONE', #235, .T. ) ;
#147 = EDGE_LOOP ( 'NONE', ( #16, #72, #37, #74 ) ) ;
#148 = DIRECTION ( 'NONE',  ( 0.000000000000000000, 0.000000000000000000, 1.000000000000000000 ) ) ;
#149 = AXIS2_PLACEMENT_3D ( 'NONE', #274, #137, #39 ) ;
#150 = CYLINDRICAL_SURFACE ( 'NONE', #255, 4.000000000000000000 ) ;
#151 = LINE ( 'NONE', #301, #33 ) ;
#152 = DIRECTION ( 'NONE',  ( 0.000000000000000000, 0.000000000000000000, 1.000000000000000000 ) ) ;
#153 = ADVANCED_FACE ( 'NONE', ( #156 ), #252, .T. ) ;
#154 = AXIS2_PLACEMENT_3D ( 'NONE', #59, #148, #248 ) ;
#155 = CC_DESIGN_APPROVAL ( #181, ( #227 ) ) ;
#156 = FACE_OUTER_BOUND ( 'NONE', #50, .T. ) ;
#157 = DIRECTION ( 'NONE',  ( 0.000000000000000000, 0.000000000000000000, 1.000000000000000000 ) ) ;
#158 = DIRECTION ( 'NONE',  ( -0.000000000000000000, -0.000000000000000000, -1.000000000000000000 ) ) ;
#159 = CIRCLE ( 'NONE', #68, 0.1999999999999996503 ) ;
#160 = DATE_TIME_ROLE ( 'classification_date' ) ;
#161 =( NAMED_UNIT ( * ) SI_UNIT ( $, .STERADIAN. ) SOLID_ANGLE_UNIT ( ) );
#162 = ORIENTED_EDGE ( 'NONE', *, *, #174, .T. ) ;
#163 = CC_DESIGN_PERSON_AND_ORGANIZATION_ASSIGNMENT ( #287, #206, ( #244 ) ) ;
#164 = PERSON_AND_ORGANIZATION ( #275, #167 ) ;
#165 = AXIS2_PLACEMENT_3D ( 'NONE', #35, #106, #125 ) ;
#166 = ORIENTED_EDGE ( 'NONE', *, *, #174, .F. ) ;
#167 = ORGANIZATION ( 'NEURÈENÝ', 'NEURÈENÝ', '' ) ;
#168 = EDGE_CURVE ( 'NONE', #295, #27, #110, .T. ) ;
#169 = CARTESIAN_POINT ( 'NONE',  ( 0.000000000000000000, 0.000000000000000000, 320.0000000000000000 ) ) ;
#170 = CARTESIAN_POINT ( 'NONE',  ( 7.000000000000000000, 8.572527594031473190E-16, 5.000000000000000000 ) ) ;
#171 = VECTOR ( 'NONE', #250, 1000.000000000000000 ) ;
#172 = APPROVAL_PERSON_ORGANIZATION ( #3, #136, #236 ) ;
#173 = VERTEX_POINT ( 'NONE', #177 ) ;
#174 = EDGE_CURVE ( 'NONE', #225, #173, #237, .T. ) ;
#175 = CARTESIAN_POINT ( 'NONE',  ( 0.000000000000000000, 0.000000000000000000, 5.000000000000000000 ) ) ;
#176 = DIRECTION ( 'NONE',  ( 0.000000000000000000, 0.000000000000000000, 1.000000000000000000 ) ) ;
#177 = CARTESIAN_POINT ( 'NONE',  ( -4.200000000000000178, 5.143516556418882928E-16, 4.999999999999991118 ) ) ;
#178 = DIRECTION ( 'NONE',  ( -1.000000000000000000, 0.000000000000000000, 0.000000000000000000 ) ) ;
#179 = DIRECTION ( 'NONE',  ( 0.000000000000000000, 0.000000000000000000, 1.000000000000000000 ) ) ;
#180 = AXIS2_PLACEMENT_3D ( 'NONE', #226, #91, #249 ) ;
#181 = APPROVAL ( #259, 'NEURÈENÝ' ) ;
#182 = CARTESIAN_POINT ( 'NONE',  ( -4.000000000000000000, 0.000000000000000000, 320.0000000000000000 ) ) ;
#183 = DATE_AND_TIME ( #54, #6 ) ;
#184 = EDGE_LOOP ( 'NONE', ( #289, #263, #260, #217 ) ) ;
#185 = COORDINATED_UNIVERSAL_TIME_OFFSET ( 1, 0, .AHEAD. ) ;
#186 = ORIENTED_EDGE ( 'NONE', *, *, #302, .T. ) ;
#187 = APPLICATION_PROTOCOL_DEFINITION ( 'international standard', 'config_control_design', 1994, #23 ) ;
#188 = CIRCLE ( 'NONE', #149, 4.000000000000000000 ) ;
#189 = ORIENTED_EDGE ( 'NONE', *, *, #302, .F. ) ;
#190 = DIRECTION ( 'NONE',  ( 1.000000000000000000, 0.000000000000000000, 0.000000000000000000 ) ) ;
#191 = ORIENTED_EDGE ( 'NONE', *, *, #199, .T. ) ;
#192 = ORIENTED_EDGE ( 'NONE', *, *, #220, .T. ) ;
#193 = DIRECTION ( 'NONE',  ( -1.000000000000000000, 0.000000000000000000, 0.000000000000000000 ) ) ;
#194 = ADVANCED_FACE ( 'NONE', ( #61 ), #18, .T. ) ;
#195 = DIRECTION ( 'NONE',  ( -1.000000000000000000, 0.000000000000000000, 0.000000000000000000 ) ) ;
#196 = CARTESIAN_POINT ( 'NONE',  ( -7.000000000000000000, 0.000000000000000000, 5.000000000000000000 ) ) ;
#197 = CIRCLE ( 'NONE', #22, 7.000000000000000000 ) ;
#198 = LOCAL_TIME ( 14, 34, 5.000000000000000000, #138 ) ;
#199 = EDGE_CURVE ( 'NONE', #82, #225, #159, .T. ) ;
#200 = DIRECTION ( 'NONE',  ( 1.000000000000000000, 0.000000000000000000, -0.000000000000000000 ) ) ;
#201 = DIRECTION ( 'NONE',  ( 1.000000000000000000, 0.000000000000000000, 0.000000000000000000 ) ) ;
#202 = APPROVAL ( #264, 'NEURÈENÝ' ) ;
#203 = SECURITY_CLASSIFICATION ( '', '', #119 ) ;
#204 = DIRECTION ( 'NONE',  ( -0.000000000000000000, -0.000000000000000000, -1.000000000000000000 ) ) ;
#205 = PRODUCT_RELATED_PRODUCT_CATEGORY ( 'detail', '', ( #14 ) ) ;
#206 = PERSON_AND_ORGANIZATION_ROLE ( 'creator' ) ;
#207 = AXIS2_PLACEMENT_3D ( 'NONE', #134, #228, #66 ) ;
#208 = ADVANCED_FACE ( 'NONE', ( #65 ), #114, .F. ) ;
#209 = APPROVAL_PERSON_ORGANIZATION ( #24, #181, #122 ) ;
#210 = CALENDAR_DATE ( 2022, 7, 7 ) ;
#211 = CALENDAR_DATE ( 2022, 7, 7 ) ;
#212 = EDGE_LOOP ( 'NONE', ( #58, #57, #191, #189 ) ) ;
#213 = PERSON_AND_ORGANIZATION ( #275, #167 ) ;
#214 = ORIENTED_EDGE ( 'NONE', *, *, #270, .T. ) ;
#215 = EDGE_CURVE ( 'NONE', #295, #53, #151, .T. ) ;
#216 = CLOSED_SHELL ( 'NONE', ( #306, #104, #8, #194, #78, #208, #28, #153, #229 ) ) ;
#217 = ORIENTED_EDGE ( 'NONE', *, *, #85, .T. ) ;
#218 = CARTESIAN_POINT ( 'NONE',  ( 7.000000000000000000, 8.572527594031473190E-16, 0.000000000000000000 ) ) ;
#219 = SHAPE_DEFINITION_REPRESENTATION ( #223, #233 ) ;
#220 = EDGE_CURVE ( 'NONE', #7, #82, #276, .T. ) ;
#221 = DIRECTION ( 'NONE',  ( 0.000000000000000000, 0.000000000000000000, 1.000000000000000000 ) ) ;
#222 = AXIS2_PLACEMENT_3D ( 'NONE', #64, #143, #118 ) ;
#223 = PRODUCT_DEFINITION_SHAPE ( 'NONE', 'NONE',  #244 ) ;
#224 = DIRECTION ( 'NONE',  ( -0.000000000000000000, -0.000000000000000000, -1.000000000000000000 ) ) ;
#225 = VERTEX_POINT ( 'NONE', #304 ) ;
#226 = CARTESIAN_POINT ( 'NONE',  ( 0.000000000000000000, 0.000000000000000000, 5.000000000000000000 ) ) ;
#227 = PRODUCT_DEFINITION_FORMATION_WITH_SPECIFIED_SOURCE ( 'LIBOVOLNÝ', '', #14, .NOT_KNOWN. ) ;
#228 = DIRECTION ( 'NONE',  ( -0.000000000000000000, -0.000000000000000000, -1.000000000000000000 ) ) ;
#229 = ADVANCED_FACE ( 'NONE', ( #305 ), #266, .F. ) ;
#230 = DIRECTION ( 'NONE',  ( 1.000000000000000000, 0.000000000000000000, -0.000000000000000000 ) ) ;
#231 = CARTESIAN_POINT ( 'NONE',  ( -4.200000000000000178, 5.143516556418882928E-16, 5.199999999999982414 ) ) ;
#232 = CIRCLE ( 'NONE', #307, 7.000000000000000000 ) ;
#233 = ADVANCED_BREP_SHAPE_REPRESENTATION ( '230b', ( #132, #123 ), #42 ) ;
#234 = APPROVAL_DATE_TIME ( #257, #181 ) ;
#235 = EDGE_LOOP ( 'NONE', ( #69, #96 ) ) ;
#236 = APPROVAL_ROLE ( '' ) ;
#237 = CIRCLE ( 'NONE', #299, 4.200000000000000178 ) ;
#238 = CARTESIAN_POINT ( 'NONE',  ( 0.000000000000000000, 0.000000000000000000, 0.000000000000000000 ) ) ;
#239 = ORIENTED_EDGE ( 'NONE', *, *, #44, .F. ) ;
#240 = DATE_TIME_ROLE ( 'creation_date' ) ;
#241 = CC_DESIGN_DATE_AND_TIME_ASSIGNMENT ( #141, #240, ( #244 ) ) ;
#242 = CIRCLE ( 'NONE', #207, 4.200000000000000178 ) ;
#243 = DIRECTION ( 'NONE',  ( 0.000000000000000000, 0.000000000000000000, 1.000000000000000000 ) ) ;
#244 = PRODUCT_DEFINITION ( 'NEZNÁMÝ', '', #227, #38 ) ;
#245 = EDGE_LOOP ( 'NONE', ( #239, #292, #103, #192 ) ) ;
#246 = FACE_OUTER_BOUND ( 'NONE', #147, .T. ) ;
#247 = EDGE_CURVE ( 'NONE', #27, #32, #277, .T. ) ;
#248 = DIRECTION ( 'NONE',  ( 1.000000000000000000, 0.000000000000000000, 0.000000000000000000 ) ) ;
#249 = DIRECTION ( 'NONE',  ( 1.000000000000000000, 0.000000000000000000, 0.000000000000000000 ) ) ;
#250 = DIRECTION ( 'NONE',  ( -0.000000000000000000, -0.000000000000000000, -1.000000000000000000 ) ) ;
#251 = CIRCLE ( 'NONE', #95, 0.1999999999999996503 ) ;
#252 = PLANE ( 'NONE',  #63 ) ;
#253 = DIRECTION ( 'NONE',  ( 1.000000000000000000, 0.000000000000000000, 0.000000000000000000 ) ) ;
#254 = DIRECTION ( 'NONE',  ( 0.000000000000000000, 0.000000000000000000, 1.000000000000000000 ) ) ;
#255 = AXIS2_PLACEMENT_3D ( 'NONE', #80, #9, #193 ) ;
#256 = APPROVAL_PERSON_ORGANIZATION ( #164, #202, #280 ) ;
#257 = DATE_AND_TIME ( #67, #294 ) ;
#258 = COORDINATED_UNIVERSAL_TIME_OFFSET ( 1, 0, .AHEAD. ) ;
#259 = APPROVAL_STATUS ( 'not_yet_approved' ) ;
#260 = ORIENTED_EDGE ( 'NONE', *, *, #215, .T. ) ;
#261 = EDGE_CURVE ( 'NONE', #268, #281, #188, .T. ) ;
#262 = DIRECTION ( 'NONE',  ( 0.000000000000000000, 0.000000000000000000, 1.000000000000000000 ) ) ;
#263 = ORIENTED_EDGE ( 'NONE', *, *, #168, .F. ) ;
#264 = APPROVAL_STATUS ( 'not_yet_approved' ) ;
#265 = FACE_BOUND ( 'NONE', #4, .T. ) ;
#266 = TOROIDAL_SURFACE ( 'NONE', #40, 4.200000000000000178, 0.2000000000000000111 ) ;
#267 = CARTESIAN_POINT ( 'NONE',  ( -7.000000000000000000, 0.000000000000000000, 0.000000000000000000 ) ) ;
#268 = VERTEX_POINT ( 'NONE', #113 ) ;
#269 = DIRECTION ( 'NONE',  ( 0.000000000000000000, 0.000000000000000000, 1.000000000000000000 ) ) ;
#270 = EDGE_CURVE ( 'NONE', #7, #173, #251, .T. ) ;
#271 = DIRECTION ( 'NONE',  ( 1.000000000000000000, 0.000000000000000000, 0.000000000000000000 ) ) ;
#272 = CC_DESIGN_APPROVAL ( #136, ( #203 ) ) ;
#273 = DIRECTION ( 'NONE',  ( 1.000000000000000000, 0.000000000000000000, 0.000000000000000000 ) ) ;
#274 = CARTESIAN_POINT ( 'NONE',  ( 0.000000000000000000, 0.000000000000000000, 320.0000000000000000 ) ) ;
#275 = PERSON ( 'NEURÈENÝ', 'NEURÈENÝ', 'NEURÈENÝ', ('NEURÈENÝ'), ('NEURÈENÝ'), ('NEURÈENÝ') ) ;
#276 = CIRCLE ( 'NONE', #115, 4.000000000000000000 ) ;
#277 = LINE ( 'NONE', #279, #17 ) ;
#278 = CC_DESIGN_DATE_AND_TIME_ASSIGNMENT ( #75, #160, ( #203 ) ) ;
#279 = CARTESIAN_POINT ( 'NONE',  ( 7.000000000000000000, 8.572527594031473190E-16, 5.000000000000000000 ) ) ;
#280 = APPROVAL_ROLE ( '' ) ;
#281 = VERTEX_POINT ( 'NONE', #90 ) ;
#282 = AXIS2_PLACEMENT_3D ( 'NONE', #36, #224, #195 ) ;
#283 = COORDINATED_UNIVERSAL_TIME_OFFSET ( 1, 0, .AHEAD. ) ;
#284 = ORIENTED_EDGE ( 'NONE', *, *, #85, .F. ) ;
#285 = ORIENTED_EDGE ( 'NONE', *, *, #12, .T. ) ;
#286 = EDGE_CURVE ( 'NONE', #268, #7, #300, .T. ) ;
#287 = PERSON_AND_ORGANIZATION ( #275, #167 ) ;
#288 = CIRCLE ( 'NONE', #11, 4.000000000000000000 ) ;
#289 = ORIENTED_EDGE ( 'NONE', *, *, #247, .F. ) ;
#290 = APPROVAL_DATE_TIME ( #293, #136 ) ;
#291 = ORIENTED_EDGE ( 'NONE', *, *, #261, .T. ) ;
#292 = ORIENTED_EDGE ( 'NONE', *, *, #261, .F. ) ;
#293 = DATE_AND_TIME ( #210, #102 ) ;
#294 = LOCAL_TIME ( 14, 34, 5.000000000000000000, #283 ) ;
#295 = VERTEX_POINT ( 'NONE', #196 ) ;
#296 = CARTESIAN_POINT ( 'NONE',  ( 4.000000000000000000, 4.898587196589412829E-16, 5.199999999999982414 ) ) ;
#297 = EDGE_CURVE ( 'NONE', #27, #295, #197, .T. ) ;
#298 = CYLINDRICAL_SURFACE ( 'NONE', #165, 7.000000000000000000 ) ;
#299 = AXIS2_PLACEMENT_3D ( 'NONE', #116, #41, #273 ) ;
#300 = LINE ( 'NONE', #182, #171 ) ;
#301 = CARTESIAN_POINT ( 'NONE',  ( -7.000000000000000000, 0.000000000000000000, 5.000000000000000000 ) ) ;
#302 = EDGE_CURVE ( 'NONE', #173, #225, #242, .T. ) ;
#303 = DIRECTION ( 'NONE',  ( 0.000000000000000000, -1.000000000000000000, 0.000000000000000000 ) ) ;
#304 = CARTESIAN_POINT ( 'NONE',  ( 4.200000000000000178, 0.000000000000000000, 4.999999999999991118 ) ) ;
#305 = FACE_OUTER_BOUND ( 'NONE', #212, .T. ) ;
#306 = ADVANCED_FACE ( 'NONE', ( #19 ), #51, .F. ) ;
#307 = AXIS2_PLACEMENT_3D ( 'NONE', #56, #243, #83 ) ;
ENDSEC;
END-ISO-10303-21;
