ISO-10303-21;
HEADER;
FILE_DESCRIPTION (( 'STEP AP203' ),
    '1' );
FILE_NAME ('2cec.STEP',
    '2023-02-12T12:15:36',
    ( '' ),
    ( '' ),
    'SwSTEP 2.0',
    'SolidWorks 2019',
    '' );
FILE_SCHEMA (( 'CONFIG_CONTROL_DESIGN' ));
ENDSEC;

DATA;
#1 = DATE_AND_TIME ( #148, #222 ) ;
#2 = PRODUCT_DEFINITION_SHAPE ( 'NONE', 'NONE',  #242 ) ;
#3 = COORDINATED_UNIVERSAL_TIME_OFFSET ( 1, 0, .AHEAD. ) ;
#4 = APPROVAL_DATE_TIME ( #47, #34 ) ;
#5 = CC_DESIGN_PERSON_AND_ORGANIZATION_ASSIGNMENT ( #41, #218, ( #29 ) ) ;
#6 = ORIENTED_EDGE ( 'NONE', *, *, #68, .F. ) ;
#7 = APPROVAL_DATE_TIME ( #152, #122 ) ;
#8 = DIRECTION ( 'NONE',  ( -1.000000000000000000, 0.000000000000000000, 0.000000000000000000 ) ) ;
#9 = CARTESIAN_POINT ( 'NONE',  ( 0.000000000000000000, 0.000000000000000000, 100.0000000000000000 ) ) ;
#10 = APPROVAL_STATUS ( 'not_yet_approved' ) ;
#11 = DIRECTION ( 'NONE',  ( 0.000000000000000000, 0.000000000000000000, 1.000000000000000000 ) ) ;
#12 = DIRECTION ( 'NONE',  ( 1.000000000000000000, 0.000000000000000000, -0.000000000000000000 ) ) ;
#13 = VERTEX_POINT ( 'NONE', #112 ) ;
#14 = APPROVAL_PERSON_ORGANIZATION ( #102, #34, #103 ) ;
#15 = APPLICATION_PROTOCOL_DEFINITION ( 'international standard', 'config_control_design', 1994, #115 ) ;
#16 = DIRECTION ( 'NONE',  ( -1.000000000000000000, 0.000000000000000000, 0.000000000000000000 ) ) ;
#17 = CARTESIAN_POINT ( 'NONE',  ( -2.500000000000000000, 0.000000000000000000, 2.000000000000000000 ) ) ;
#18 = AXIS2_PLACEMENT_3D ( 'NONE', #195, #11, #94 ) ;
#19 = AXIS2_PLACEMENT_3D ( 'NONE', #9, #214, #89 ) ;
#20 = DATE_AND_TIME ( #64, #198 ) ;
#21 = AXIS2_PLACEMENT_3D ( 'NONE', #163, #234, #199 ) ;
#22 = CC_DESIGN_SECURITY_CLASSIFICATION ( #243, ( #29 ) ) ;
#23 = CIRCLE ( 'NONE', #51, 1.250000000000000000 ) ;
#24 = APPROVAL_ROLE ( '' ) ;
#25 = ORIENTED_EDGE ( 'NONE', *, *, #68, .T. ) ;
#26 = CALENDAR_DATE ( 2023, 12, 2 ) ;
#27 = ORIENTED_EDGE ( 'NONE', *, *, #91, .F. ) ;
#28 = EDGE_LOOP ( 'NONE', ( #169, #128 ) ) ;
#29 = PRODUCT_DEFINITION_FORMATION_WITH_SPECIFIED_SOURCE ( 'LIBOVOLNÝ', '', #98, .NOT_KNOWN. ) ;
#30 = EDGE_LOOP ( 'NONE', ( #241, #207 ) ) ;
#31 = CARTESIAN_POINT ( 'NONE',  ( 0.000000000000000000, 0.000000000000000000, 0.000000000000000000 ) ) ;
#32 = DIRECTION ( 'NONE',  ( 0.000000000000000000, 0.000000000000000000, 1.000000000000000000 ) ) ;
#33 = CARTESIAN_POINT ( 'NONE',  ( 2.500000000000000000, 3.061616997868383141E-16, 0.000000000000000000 ) ) ;
#34 = APPROVAL ( #184, 'NEURÈENÝ' ) ;
#35 = FACE_BOUND ( 'NONE', #104, .T. ) ;
#36 = UNCERTAINTY_MEASURE_WITH_UNIT (LENGTH_MEASURE( 1.000000000000000082E-05 ), #73, 'distance_accuracy_value', 'NONE');
#37 = ORIENTED_EDGE ( 'NONE', *, *, #131, .T. ) ;
#38 = AXIS2_PLACEMENT_3D ( 'NONE', #120, #217, #202 ) ;
#39 = PLANE ( 'NONE',  #38 ) ;
#40 = PLANE ( 'NONE',  #215 ) ;
#41 = PERSON_AND_ORGANIZATION ( #186, #204 ) ;
#42 = VECTOR ( 'NONE', #90, 1000.000000000000000 ) ;
#43 = APPROVAL_PERSON_ORGANIZATION ( #110, #122, #24 ) ;
#44 = AXIS2_PLACEMENT_3D ( 'NONE', #170, #96, #181 ) ;
#45 = DATE_TIME_ROLE ( 'creation_date' ) ;
#46 = ADVANCED_FACE ( 'NONE', ( #192 ), #111, .T. ) ;
#47 = DATE_AND_TIME ( #235, #255 ) ;
#48 = ADVANCED_FACE ( 'NONE', ( #155 ), #138, .T. ) ;
#49 = SECURITY_CLASSIFICATION_LEVEL ( 'unclassified' ) ;
#50 = APPROVAL_PERSON_ORGANIZATION ( #95, #203, #180 ) ;
#51 = AXIS2_PLACEMENT_3D ( 'NONE', #231, #79, #248 ) ;
#52 = FACE_OUTER_BOUND ( 'NONE', #108, .T. ) ;
#53 = PERSON_AND_ORGANIZATION ( #186, #204 ) ;
#54 = CARTESIAN_POINT ( 'NONE',  ( 0.000000000000000000, 0.000000000000000000, 0.000000000000000000 ) ) ;
#55 = CARTESIAN_POINT ( 'NONE',  ( 0.000000000000000000, 0.000000000000000000, 100.0000000000000000 ) ) ;
#56 = CIRCLE ( 'NONE', #179, 2.500000000000000000 ) ;
#57 = DIRECTION ( 'NONE',  ( 1.000000000000000000, 0.000000000000000000, 0.000000000000000000 ) ) ;
#58 =( NAMED_UNIT ( * ) PLANE_ANGLE_UNIT ( ) SI_UNIT ( $, .RADIAN. ) );
#59 = ORIENTED_EDGE ( 'NONE', *, *, #142, .F. ) ;
#60 = FACE_OUTER_BOUND ( 'NONE', #67, .T. ) ;
#61 = AXIS2_PLACEMENT_3D ( 'NONE', #62, #247, #176 ) ;
#62 = CARTESIAN_POINT ( 'NONE',  ( 0.000000000000000000, 0.000000000000000000, 2.000000000000000000 ) ) ;
#63 = ADVANCED_FACE ( 'NONE', ( #52 ), #75, .T. ) ;
#64 = CALENDAR_DATE ( 2023, 12, 2 ) ;
#65 = CIRCLE ( 'NONE', #18, 2.500000000000000000 ) ;
#66 = LOCAL_TIME ( 13, 15, 36.00000000000000000, #133 ) ;
#67 = EDGE_LOOP ( 'NONE', ( #25, #150 ) ) ;
#68 = EDGE_CURVE ( 'NONE', #13, #224, #23, .T. ) ;
#69 = ORIENTED_EDGE ( 'NONE', *, *, #101, .T. ) ;
#70 = AXIS2_PLACEMENT_3D ( 'NONE', #118, #162, #8 ) ;
#71 = DIRECTION ( 'NONE',  ( -0.000000000000000000, -0.000000000000000000, -1.000000000000000000 ) ) ;
#72 = DIRECTION ( 'NONE',  ( -0.000000000000000000, -0.000000000000000000, -1.000000000000000000 ) ) ;
#73 =( LENGTH_UNIT ( ) NAMED_UNIT ( * ) SI_UNIT ( .MILLI., .METRE. ) );
#74 = AXIS2_PLACEMENT_3D ( 'NONE', #97, #77, #216 ) ;
#75 = CYLINDRICAL_SURFACE ( 'NONE', #19, 1.250000000000000000 ) ;
#76 = EDGE_CURVE ( 'NONE', #224, #246, #200, .T. ) ;
#77 = DIRECTION ( 'NONE',  ( 0.000000000000000000, 0.000000000000000000, 1.000000000000000000 ) ) ;
#78 = CIRCLE ( 'NONE', #88, 2.500000000000000000 ) ;
#79 = DIRECTION ( 'NONE',  ( 0.000000000000000000, 0.000000000000000000, 1.000000000000000000 ) ) ;
#80 = CARTESIAN_POINT ( 'NONE',  ( 0.000000000000000000, 0.000000000000000000, 2.000000000000000000 ) ) ;
#81 = CC_DESIGN_APPROVAL ( #203, ( #242 ) ) ;
#82 = MECHANICAL_CONTEXT ( 'NONE', #115, 'mechanical' ) ;
#83 = EDGE_CURVE ( 'NONE', #168, #246, #107, .T. ) ;
#84 = PERSON_AND_ORGANIZATION ( #186, #204 ) ;
#85 = CIRCLE ( 'NONE', #21, 1.250000000000000000 ) ;
#86 = ORIENTED_EDGE ( 'NONE', *, *, #125, .T. ) ;
#87 = ORIENTED_EDGE ( 'NONE', *, *, #91, .T. ) ;
#88 = AXIS2_PLACEMENT_3D ( 'NONE', #54, #136, #211 ) ;
#89 = DIRECTION ( 'NONE',  ( -1.000000000000000000, 0.000000000000000000, 0.000000000000000000 ) ) ;
#90 = DIRECTION ( 'NONE',  ( -0.000000000000000000, -0.000000000000000000, -1.000000000000000000 ) ) ;
#91 = EDGE_CURVE ( 'NONE', #246, #168, #159, .T. ) ;
#92 = CARTESIAN_POINT ( 'NONE',  ( 0.000000000000000000, 0.000000000000000000, 2.000000000000000000 ) ) ;
#93 = DIRECTION ( 'NONE',  ( 0.000000000000000000, 0.000000000000000000, 1.000000000000000000 ) ) ;
#94 = DIRECTION ( 'NONE',  ( 1.000000000000000000, 0.000000000000000000, 0.000000000000000000 ) ) ;
#95 = PERSON_AND_ORGANIZATION ( #186, #204 ) ;
#96 = DIRECTION ( 'NONE',  ( 0.000000000000000000, 0.000000000000000000, 1.000000000000000000 ) ) ;
#97 = CARTESIAN_POINT ( 'NONE',  ( 0.000000000000000000, 0.000000000000000000, 0.000000000000000000 ) ) ;
#98 = PRODUCT ( '2cec', '2cec', '', ( #82 ) ) ;
#99 = PERSON_AND_ORGANIZATION_ROLE ( 'design_supplier' ) ;
#100 = CLOSED_SHELL ( 'NONE', ( #63, #196, #48, #144, #239, #46, #164 ) ) ;
#101 = EDGE_CURVE ( 'NONE', #177, #205, #227, .T. ) ;
#102 = PERSON_AND_ORGANIZATION ( #186, #204 ) ;
#103 = APPROVAL_ROLE ( '' ) ;
#104 = EDGE_LOOP ( 'NONE', ( #158, #27 ) ) ;
#105 = DATE_TIME_ROLE ( 'classification_date' ) ;
#106 = ORIENTED_EDGE ( 'NONE', *, *, #76, .F. ) ;
#107 = CIRCLE ( 'NONE', #229, 1.250000000000000000 ) ;
#108 = EDGE_LOOP ( 'NONE', ( #244, #173, #87, #134 ) ) ;
#109 = CC_DESIGN_PERSON_AND_ORGANIZATION_ASSIGNMENT ( #84, #147, ( #242 ) ) ;
#110 = PERSON_AND_ORGANIZATION ( #186, #204 ) ;
#111 = CYLINDRICAL_SURFACE ( 'NONE', #193, 1.250000000000000000 ) ;
#112 = CARTESIAN_POINT ( 'NONE',  ( -1.250000000000000000, 0.000000000000000000, 100.0000000000000000 ) ) ;
#113 = CARTESIAN_POINT ( 'NONE',  ( 1.250000000000000000, 1.530808498934191571E-16, 2.000000000000000000 ) ) ;
#114 = CARTESIAN_POINT ( 'NONE',  ( 0.000000000000000000, 0.000000000000000000, 2.000000000000000000 ) ) ;
#115 = APPLICATION_CONTEXT ( 'configuration controlled 3d designs of mechanical parts and assemblies' ) ;
#116 = DIRECTION ( 'NONE',  ( -0.000000000000000000, -0.000000000000000000, -1.000000000000000000 ) ) ;
#117 = CARTESIAN_POINT ( 'NONE',  ( -2.500000000000000000, 0.000000000000000000, 0.000000000000000000 ) ) ;
#118 = CARTESIAN_POINT ( 'NONE',  ( 0.000000000000000000, 0.000000000000000000, 2.000000000000000000 ) ) ;
#119 = FACE_OUTER_BOUND ( 'NONE', #154, .T. ) ;
#120 = CARTESIAN_POINT ( 'NONE',  ( 0.000000000000000000, 0.000000000000000000, 2.000000000000000000 ) ) ;
#121 = FACE_OUTER_BOUND ( 'NONE', #30, .T. ) ;
#122 = APPROVAL ( #149, 'NEURÈENÝ' ) ;
#123 = PERSON_AND_ORGANIZATION ( #186, #204 ) ;
#124 = CC_DESIGN_APPROVAL ( #34, ( #29 ) ) ;
#125 = EDGE_CURVE ( 'NONE', #233, #205, #78, .T. ) ;
#126 = EDGE_CURVE ( 'NONE', #177, #209, #56, .T. ) ;
#127 = ADVANCED_BREP_SHAPE_REPRESENTATION ( '2cec', ( #183, #130 ), #253 ) ;
#128 = ORIENTED_EDGE ( 'NONE', *, *, #142, .T. ) ;
#129 = DATE_AND_TIME ( #26, #141 ) ;
#130 = AXIS2_PLACEMENT_3D ( 'NONE', #31, #201, #182 ) ;
#131 = EDGE_CURVE ( 'NONE', #205, #233, #65, .T. ) ;
#132 = ORIENTED_EDGE ( 'NONE', *, *, #225, .F. ) ;
#133 = COORDINATED_UNIVERSAL_TIME_OFFSET ( 1, 0, .AHEAD. ) ;
#134 = ORIENTED_EDGE ( 'NONE', *, *, #236, .F. ) ;
#135 = PERSON_AND_ORGANIZATION_ROLE ( 'design_owner' ) ;
#136 = DIRECTION ( 'NONE',  ( 0.000000000000000000, 0.000000000000000000, 1.000000000000000000 ) ) ;
#137 = CARTESIAN_POINT ( 'NONE',  ( 2.500000000000000000, 3.061616997868383141E-16, 2.000000000000000000 ) ) ;
#138 = CYLINDRICAL_SURFACE ( 'NONE', #70, 2.500000000000000000 ) ;
#139 = EDGE_LOOP ( 'NONE', ( #132, #153, #69, #37 ) ) ;
#140 = LINE ( 'NONE', #137, #187 ) ;
#141 = LOCAL_TIME ( 13, 15, 36.00000000000000000, #165 ) ;
#142 = EDGE_CURVE ( 'NONE', #209, #177, #156, .T. ) ;
#143 = FACE_OUTER_BOUND ( 'NONE', #28, .T. ) ;
#144 = ADVANCED_FACE ( 'NONE', ( #35, #143 ), #39, .T. ) ;
#145 = APPROVAL_DATE_TIME ( #20, #203 ) ;
#146 = CC_DESIGN_PERSON_AND_ORGANIZATION_ASSIGNMENT ( #206, #185, ( #243 ) ) ;
#147 = PERSON_AND_ORGANIZATION_ROLE ( 'creator' ) ;
#148 = CALENDAR_DATE ( 2023, 12, 2 ) ;
#149 = APPROVAL_STATUS ( 'not_yet_approved' ) ;
#150 = ORIENTED_EDGE ( 'NONE', *, *, #178, .T. ) ;
#151 = AXIS2_PLACEMENT_3D ( 'NONE', #92, #175, #57 ) ;
#152 = DATE_AND_TIME ( #167, #66 ) ;
#153 = ORIENTED_EDGE ( 'NONE', *, *, #126, .F. ) ;
#154 = EDGE_LOOP ( 'NONE', ( #59, #230, #86, #188 ) ) ;
#155 = FACE_OUTER_BOUND ( 'NONE', #139, .T. ) ;
#156 = CIRCLE ( 'NONE', #151, 2.500000000000000000 ) ;
#157 =( NAMED_UNIT ( * ) SI_UNIT ( $, .STERADIAN. ) SOLID_ANGLE_UNIT ( ) );
#158 = ORIENTED_EDGE ( 'NONE', *, *, #83, .F. ) ;
#159 = CIRCLE ( 'NONE', #44, 1.250000000000000000 ) ;
#160 = DIRECTION ( 'NONE',  ( 1.000000000000000000, 0.000000000000000000, 0.000000000000000000 ) ) ;
#161 = PLANE ( 'NONE',  #74 ) ;
#162 = DIRECTION ( 'NONE',  ( -0.000000000000000000, -0.000000000000000000, -1.000000000000000000 ) ) ;
#163 = CARTESIAN_POINT ( 'NONE',  ( 0.000000000000000000, 0.000000000000000000, 100.0000000000000000 ) ) ;
#164 = ADVANCED_FACE ( 'NONE', ( #60 ), #40, .T. ) ;
#165 = COORDINATED_UNIVERSAL_TIME_OFFSET ( 1, 0, .AHEAD. ) ;
#166 = ORIENTED_EDGE ( 'NONE', *, *, #236, .T. ) ;
#167 = CALENDAR_DATE ( 2023, 12, 2 ) ;
#168 = VERTEX_POINT ( 'NONE', #212 ) ;
#169 = ORIENTED_EDGE ( 'NONE', *, *, #126, .T. ) ;
#170 = CARTESIAN_POINT ( 'NONE',  ( 0.000000000000000000, 0.000000000000000000, 2.000000000000000000 ) ) ;
#171 = VECTOR ( 'NONE', #72, 1000.000000000000000 ) ;
#172 = DESIGN_CONTEXT ( 'detailed design', #238, 'design' ) ;
#173 = ORIENTED_EDGE ( 'NONE', *, *, #76, .T. ) ;
#174 = LINE ( 'NONE', #251, #42 ) ;
#175 = DIRECTION ( 'NONE',  ( 0.000000000000000000, 0.000000000000000000, 1.000000000000000000 ) ) ;
#176 = DIRECTION ( 'NONE',  ( -1.000000000000000000, 0.000000000000000000, 0.000000000000000000 ) ) ;
#177 = VERTEX_POINT ( 'NONE', #17 ) ;
#178 = EDGE_CURVE ( 'NONE', #224, #13, #85, .T. ) ;
#179 = AXIS2_PLACEMENT_3D ( 'NONE', #80, #32, #197 ) ;
#180 = APPROVAL_ROLE ( '' ) ;
#181 = DIRECTION ( 'NONE',  ( 1.000000000000000000, 0.000000000000000000, 0.000000000000000000 ) ) ;
#182 = DIRECTION ( 'NONE',  ( 1.000000000000000000, 0.000000000000000000, 0.000000000000000000 ) ) ;
#183 = MANIFOLD_SOLID_BREP ( 'Pøidat vysunutím3', #100 ) ;
#184 = APPROVAL_STATUS ( 'not_yet_approved' ) ;
#185 = PERSON_AND_ORGANIZATION_ROLE ( 'classification_officer' ) ;
#186 = PERSON ( 'NEURÈENÝ', 'NEURÈENÝ', 'NEURÈENÝ', ('NEURÈENÝ'), ('NEURÈENÝ'), ('NEURÈENÝ') ) ;
#187 = VECTOR ( 'NONE', #228, 1000.000000000000000 ) ;
#188 = ORIENTED_EDGE ( 'NONE', *, *, #101, .F. ) ;
#189 = VECTOR ( 'NONE', #116, 1000.000000000000000 ) ;
#190 = CARTESIAN_POINT ( 'NONE',  ( 0.000000000000000000, 0.000000000000000000, 100.0000000000000000 ) ) ;
#191 = SHAPE_DEFINITION_REPRESENTATION ( #2, #127 ) ;
#192 = FACE_OUTER_BOUND ( 'NONE', #240, .T. ) ;
#193 = AXIS2_PLACEMENT_3D ( 'NONE', #190, #71, #16 ) ;
#194 = APPLICATION_PROTOCOL_DEFINITION ( 'international standard', 'config_control_design', 1994, #238 ) ;
#195 = CARTESIAN_POINT ( 'NONE',  ( 0.000000000000000000, 0.000000000000000000, 0.000000000000000000 ) ) ;
#196 = ADVANCED_FACE ( 'NONE', ( #119 ), #232, .T. ) ;
#197 = DIRECTION ( 'NONE',  ( 1.000000000000000000, 0.000000000000000000, 0.000000000000000000 ) ) ;
#198 = LOCAL_TIME ( 13, 15, 36.00000000000000000, #249 ) ;
#199 = DIRECTION ( 'NONE',  ( 1.000000000000000000, 0.000000000000000000, 0.000000000000000000 ) ) ;
#200 = LINE ( 'NONE', #245, #171 ) ;
#201 = DIRECTION ( 'NONE',  ( 0.000000000000000000, 0.000000000000000000, 1.000000000000000000 ) ) ;
#202 = DIRECTION ( 'NONE',  ( 1.000000000000000000, 0.000000000000000000, -0.000000000000000000 ) ) ;
#203 = APPROVAL ( #10, 'NEURÈENÝ' ) ;
#204 = ORGANIZATION ( 'NEURÈENÝ', 'NEURÈENÝ', '' ) ;
#205 = VERTEX_POINT ( 'NONE', #117 ) ;
#206 = PERSON_AND_ORGANIZATION ( #186, #204 ) ;
#207 = ORIENTED_EDGE ( 'NONE', *, *, #125, .F. ) ;
#208 = CC_DESIGN_PERSON_AND_ORGANIZATION_ASSIGNMENT ( #53, #135, ( #98 ) ) ;
#209 = VERTEX_POINT ( 'NONE', #254 ) ;
#210 = CARTESIAN_POINT ( 'NONE',  ( 1.250000000000000000, 1.530808498934191571E-16, 100.0000000000000000 ) ) ;
#211 = DIRECTION ( 'NONE',  ( 1.000000000000000000, 0.000000000000000000, 0.000000000000000000 ) ) ;
#212 = CARTESIAN_POINT ( 'NONE',  ( -1.250000000000000000, 0.000000000000000000, 2.000000000000000000 ) ) ;
#213 = DIRECTION ( 'NONE',  ( 0.000000000000000000, 0.000000000000000000, 1.000000000000000000 ) ) ;
#214 = DIRECTION ( 'NONE',  ( -0.000000000000000000, -0.000000000000000000, -1.000000000000000000 ) ) ;
#215 = AXIS2_PLACEMENT_3D ( 'NONE', #55, #93, #12 ) ;
#216 = DIRECTION ( 'NONE',  ( 1.000000000000000000, 0.000000000000000000, -0.000000000000000000 ) ) ;
#217 = DIRECTION ( 'NONE',  ( 0.000000000000000000, 0.000000000000000000, 1.000000000000000000 ) ) ;
#218 = PERSON_AND_ORGANIZATION_ROLE ( 'creator' ) ;
#219 = PRODUCT_RELATED_PRODUCT_CATEGORY ( 'detail', '', ( #98 ) ) ;
#220 = COORDINATED_UNIVERSAL_TIME_OFFSET ( 1, 0, .AHEAD. ) ;
#221 = CC_DESIGN_PERSON_AND_ORGANIZATION_ASSIGNMENT ( #123, #99, ( #29 ) ) ;
#222 = LOCAL_TIME ( 13, 15, 36.00000000000000000, #220 ) ;
#223 = CC_DESIGN_APPROVAL ( #122, ( #243 ) ) ;
#224 = VERTEX_POINT ( 'NONE', #210 ) ;
#225 = EDGE_CURVE ( 'NONE', #209, #233, #140, .T. ) ;
#226 = ORIENTED_EDGE ( 'NONE', *, *, #83, .T. ) ;
#227 = LINE ( 'NONE', #250, #189 ) ;
#228 = DIRECTION ( 'NONE',  ( -0.000000000000000000, -0.000000000000000000, -1.000000000000000000 ) ) ;
#229 = AXIS2_PLACEMENT_3D ( 'NONE', #114, #213, #160 ) ;
#230 = ORIENTED_EDGE ( 'NONE', *, *, #225, .T. ) ;
#231 = CARTESIAN_POINT ( 'NONE',  ( 0.000000000000000000, 0.000000000000000000, 100.0000000000000000 ) ) ;
#232 = CYLINDRICAL_SURFACE ( 'NONE', #61, 2.500000000000000000 ) ;
#233 = VERTEX_POINT ( 'NONE', #33 ) ;
#234 = DIRECTION ( 'NONE',  ( 0.000000000000000000, 0.000000000000000000, 1.000000000000000000 ) ) ;
#235 = CALENDAR_DATE ( 2023, 12, 2 ) ;
#236 = EDGE_CURVE ( 'NONE', #13, #168, #174, .T. ) ;
#237 = CC_DESIGN_DATE_AND_TIME_ASSIGNMENT ( #129, #105, ( #243 ) ) ;
#238 = APPLICATION_CONTEXT ( 'configuration controlled 3d designs of mechanical parts and assemblies' ) ;
#239 = ADVANCED_FACE ( 'NONE', ( #121 ), #161, .F. ) ;
#240 = EDGE_LOOP ( 'NONE', ( #106, #6, #166, #226 ) ) ;
#241 = ORIENTED_EDGE ( 'NONE', *, *, #131, .F. ) ;
#242 = PRODUCT_DEFINITION ( 'NEZNÁMÝ', '', #29, #172 ) ;
#243 = SECURITY_CLASSIFICATION ( '', '', #49 ) ;
#244 = ORIENTED_EDGE ( 'NONE', *, *, #178, .F. ) ;
#245 = CARTESIAN_POINT ( 'NONE',  ( 1.250000000000000000, 1.530808498934191571E-16, 100.0000000000000000 ) ) ;
#246 = VERTEX_POINT ( 'NONE', #113 ) ;
#247 = DIRECTION ( 'NONE',  ( -0.000000000000000000, -0.000000000000000000, -1.000000000000000000 ) ) ;
#248 = DIRECTION ( 'NONE',  ( 1.000000000000000000, 0.000000000000000000, 0.000000000000000000 ) ) ;
#249 = COORDINATED_UNIVERSAL_TIME_OFFSET ( 1, 0, .AHEAD. ) ;
#250 = CARTESIAN_POINT ( 'NONE',  ( -2.500000000000000000, 0.000000000000000000, 2.000000000000000000 ) ) ;
#251 = CARTESIAN_POINT ( 'NONE',  ( -1.250000000000000000, 0.000000000000000000, 100.0000000000000000 ) ) ;
#252 = CC_DESIGN_DATE_AND_TIME_ASSIGNMENT ( #1, #45, ( #242 ) ) ;
#253 =( GEOMETRIC_REPRESENTATION_CONTEXT ( 3 ) GLOBAL_UNCERTAINTY_ASSIGNED_CONTEXT ( ( #36 ) ) GLOBAL_UNIT_ASSIGNED_CONTEXT ( ( #73, #58, #157 ) ) REPRESENTATION_CONTEXT ( 'NONE', 'WORKASPACE' ) );
#254 = CARTESIAN_POINT ( 'NONE',  ( 2.500000000000000000, 3.061616997868383141E-16, 2.000000000000000000 ) ) ;
#255 = LOCAL_TIME ( 13, 15, 36.00000000000000000, #3 ) ;
ENDSEC;
END-ISO-10303-21;
