ISO-10303-21;
HEADER;
FILE_DESCRIPTION (( 'STEP AP203' ),
    '1' );
FILE_NAME ('7e0b.STEP',
    '2022-07-01T01:17:35',
    ( '' ),
    ( '' ),
    'SwSTEP 2.0',
    'SolidWorks 2019',
    '' );
FILE_SCHEMA (( 'CONFIG_CONTROL_DESIGN' ));
ENDSEC;

DATA;
#1 = CARTESIAN_POINT ( 'NONE',  ( 8.000000000000000000, 9.797174393178825657E-16, 257.0000000000000000 ) ) ;
#2 = APPROVAL_PERSON_ORGANIZATION ( #303, #280, #258 ) ;
#3 = FACE_OUTER_BOUND ( 'NONE', #232, .T. ) ;
#4 = PERSON_AND_ORGANIZATION ( #45, #136 ) ;
#5 = LOCAL_TIME ( 3, 17, 35.00000000000000000, #120 ) ;
#6 = PLANE ( 'NONE',  #204 ) ;
#7 = DIRECTION ( 'NONE',  ( 0.000000000000000000, 0.000000000000000000, 1.000000000000000000 ) ) ;
#8 = ADVANCED_FACE ( 'NONE', ( #58 ), #278, .T. ) ;
#9 = CARTESIAN_POINT ( 'NONE',  ( -11.00000000000000000, 0.000000000000000000, 0.000000000000000000 ) ) ;
#10 = EDGE_CURVE ( 'NONE', #161, #34, #254, .T. ) ;
#11 = TOROIDAL_SURFACE ( 'NONE', #186, 8.200000000000001066, 0.2000000000000000111 ) ;
#12 = ORIENTED_EDGE ( 'NONE', *, *, #240, .T. ) ;
#13 = EDGE_LOOP ( 'NONE', ( #192, #296, #160, #164 ) ) ;
#14 = CARTESIAN_POINT ( 'NONE',  ( 8.000000000000000000, 9.797174393178825657E-16, 7.200000000000011724 ) ) ;
#15 = CARTESIAN_POINT ( 'NONE',  ( 8.200000000000001066, 0.000000000000000000, 7.000000000000006217 ) ) ;
#16 = CARTESIAN_POINT ( 'NONE',  ( 11.00000000000000000, 1.347111479062088405E-15, 0.000000000000000000 ) ) ;
#17 = DIRECTION ( 'NONE',  ( -0.000000000000000000, -0.000000000000000000, -1.000000000000000000 ) ) ;
#18 = APPLICATION_CONTEXT ( 'configuration controlled 3d designs of mechanical parts and assemblies' ) ;
#19 = AXIS2_PLACEMENT_3D ( 'NONE', #234, #60, #139 ) ;
#20 = CALENDAR_DATE ( 2022, 1, 7 ) ;
#21 = APPLICATION_CONTEXT ( 'configuration controlled 3d designs of mechanical parts and assemblies' ) ;
#22 = CARTESIAN_POINT ( 'NONE',  ( 0.000000000000000000, 0.000000000000000000, 257.0000000000000000 ) ) ;
#23 = CARTESIAN_POINT ( 'NONE',  ( 0.000000000000000000, 0.000000000000000000, 7.200000000000011724 ) ) ;
#24 = COORDINATED_UNIVERSAL_TIME_OFFSET ( 1, 0, .AHEAD. ) ;
#25 = DIRECTION ( 'NONE',  ( 0.000000000000000000, 0.000000000000000000, 1.000000000000000000 ) ) ;
#26 = ADVANCED_FACE ( 'NONE', ( #212 ), #11, .F. ) ;
#27 = DIRECTION ( 'NONE',  ( 1.000000000000000000, 0.000000000000000000, -0.000000000000000000 ) ) ;
#28 = AXIS2_PLACEMENT_3D ( 'NONE', #242, #69, #221 ) ;
#29 = DIRECTION ( 'NONE',  ( 1.000000000000000000, 0.000000000000000000, 0.000000000000000000 ) ) ;
#30 =( GEOMETRIC_REPRESENTATION_CONTEXT ( 3 ) GLOBAL_UNCERTAINTY_ASSIGNED_CONTEXT ( ( #88 ) ) GLOBAL_UNIT_ASSIGNED_CONTEXT ( ( #55, #59, #132 ) ) REPRESENTATION_CONTEXT ( 'NONE', 'WORKASPACE' ) );
#31 = EDGE_LOOP ( 'NONE', ( #297, #256 ) ) ;
#32 = DIRECTION ( 'NONE',  ( -0.000000000000000000, -0.000000000000000000, -1.000000000000000000 ) ) ;
#33 = EDGE_CURVE ( 'NONE', #34, #284, #181, .T. ) ;
#34 = VERTEX_POINT ( 'NONE', #14 ) ;
#35 = DIRECTION ( 'NONE',  ( -1.000000000000000000, 0.000000000000000000, 0.000000000000000000 ) ) ;
#36 = EDGE_LOOP ( 'NONE', ( #83, #133, #189, #79 ) ) ;
#37 = ORIENTED_EDGE ( 'NONE', *, *, #294, .F. ) ;
#38 = PERSON_AND_ORGANIZATION ( #45, #136 ) ;
#39 = CLOSED_SHELL ( 'NONE', ( #246, #286, #8, #66, #218, #179, #129, #168, #26 ) ) ;
#40 = PERSON_AND_ORGANIZATION_ROLE ( 'classification_officer' ) ;
#41 = DIRECTION ( 'NONE',  ( 1.000000000000000000, 0.000000000000000000, 0.000000000000000000 ) ) ;
#42 = DATE_AND_TIME ( #20, #5 ) ;
#43 = CARTESIAN_POINT ( 'NONE',  ( 0.000000000000000000, 0.000000000000000000, 0.000000000000000000 ) ) ;
#44 = PERSON_AND_ORGANIZATION ( #45, #136 ) ;
#45 = PERSON ( 'NEURÈENÝ', 'NEURÈENÝ', 'NEURÈENÝ', ('NEURÈENÝ'), ('NEURÈENÝ'), ('NEURÈENÝ') ) ;
#46 = CIRCLE ( 'NONE', #257, 8.200000000000001066 ) ;
#47 = CARTESIAN_POINT ( 'NONE',  ( 0.000000000000000000, 0.000000000000000000, 257.0000000000000000 ) ) ;
#48 = CC_DESIGN_PERSON_AND_ORGANIZATION_ASSIGNMENT ( #233, #113, ( #51 ) ) ;
#49 = CYLINDRICAL_SURFACE ( 'NONE', #292, 8.000000000000000000 ) ;
#50 = CIRCLE ( 'NONE', #80, 8.200000000000001066 ) ;
#51 = PRODUCT ( '7e0b', '7e0b', '', ( #110 ) ) ;
#52 = CARTESIAN_POINT ( 'NONE',  ( 11.00000000000000000, 1.347111479062088405E-15, 7.000000000000000000 ) ) ;
#53 = ORIENTED_EDGE ( 'NONE', *, *, #250, .T. ) ;
#54 = VECTOR ( 'NONE', #211, 1000.000000000000000 ) ;
#55 =( LENGTH_UNIT ( ) NAMED_UNIT ( * ) SI_UNIT ( .MILLI., .METRE. ) );
#56 = PRODUCT_DEFINITION ( 'NEZNÁMÝ', '', #122, #92 ) ;
#57 = SECURITY_CLASSIFICATION ( '', '', #71 ) ;
#58 = FACE_OUTER_BOUND ( 'NONE', #253, .T. ) ;
#59 =( NAMED_UNIT ( * ) PLANE_ANGLE_UNIT ( ) SI_UNIT ( $, .RADIAN. ) );
#60 = DIRECTION ( 'NONE',  ( 0.000000000000000000, -1.000000000000000000, 0.000000000000000000 ) ) ;
#61 = CARTESIAN_POINT ( 'NONE',  ( 0.000000000000000000, 0.000000000000000000, 7.000000000000000000 ) ) ;
#62 = VERTEX_POINT ( 'NONE', #16 ) ;
#63 = DIRECTION ( 'NONE',  ( 0.000000000000000000, 0.000000000000000000, 1.000000000000000000 ) ) ;
#64 = DIRECTION ( 'NONE',  ( -1.000000000000000000, 0.000000000000000000, 0.000000000000000000 ) ) ;
#65 = CIRCLE ( 'NONE', #170, 8.000000000000000000 ) ;
#66 = ADVANCED_FACE ( 'NONE', ( #114 ), #112, .T. ) ;
#67 = APPROVAL ( #98, 'NEURÈENÝ' ) ;
#68 = AXIS2_PLACEMENT_3D ( 'NONE', #47, #25, #152 ) ;
#69 = DIRECTION ( 'NONE',  ( 0.000000000000000000, 0.000000000000000000, 1.000000000000000000 ) ) ;
#70 = DIRECTION ( 'NONE',  ( 0.000000000000000000, 0.000000000000000000, 1.000000000000000000 ) ) ;
#71 = SECURITY_CLASSIFICATION_LEVEL ( 'unclassified' ) ;
#72 = FACE_OUTER_BOUND ( 'NONE', #215, .T. ) ;
#73 = CIRCLE ( 'NONE', #177, 0.2000000000000005107 ) ;
#74 = DIRECTION ( 'NONE',  ( 0.000000000000000000, 0.000000000000000000, 1.000000000000000000 ) ) ;
#75 = PERSON_AND_ORGANIZATION_ROLE ( 'creator' ) ;
#76 = CC_DESIGN_PERSON_AND_ORGANIZATION_ASSIGNMENT ( #44, #180, ( #122 ) ) ;
#77 = CARTESIAN_POINT ( 'NONE',  ( 0.000000000000000000, 0.000000000000000000, 7.200000000000011724 ) ) ;
#78 = ORIENTED_EDGE ( 'NONE', *, *, #306, .F. ) ;
#79 = ORIENTED_EDGE ( 'NONE', *, *, #94, .T. ) ;
#80 = AXIS2_PLACEMENT_3D ( 'NONE', #149, #99, #41 ) ;
#81 = DIRECTION ( 'NONE',  ( -0.000000000000000000, -0.000000000000000000, -1.000000000000000000 ) ) ;
#82 = APPROVAL_PERSON_ORGANIZATION ( #142, #290, #265 ) ;
#83 = ORIENTED_EDGE ( 'NONE', *, *, #10, .F. ) ;
#84 = CARTESIAN_POINT ( 'NONE',  ( -11.00000000000000000, 0.000000000000000000, 7.000000000000000000 ) ) ;
#85 = ORIENTED_EDGE ( 'NONE', *, *, #155, .T. ) ;
#86 = FACE_OUTER_BOUND ( 'NONE', #209, .T. ) ;
#87 = EDGE_LOOP ( 'NONE', ( #236, #217, #53, #185 ) ) ;
#88 = UNCERTAINTY_MEASURE_WITH_UNIT (LENGTH_MEASURE( 1.000000000000000082E-05 ), #55, 'distance_accuracy_value', 'NONE');
#89 = ORIENTED_EDGE ( 'NONE', *, *, #100, .F. ) ;
#90 = AXIS2_PLACEMENT_3D ( 'NONE', #277, #159, #187 ) ;
#91 = APPROVAL_ROLE ( '' ) ;
#92 = DESIGN_CONTEXT ( 'detailed design', #18, 'design' ) ;
#93 = COORDINATED_UNIVERSAL_TIME_OFFSET ( 1, 0, .AHEAD. ) ;
#94 = EDGE_CURVE ( 'NONE', #251, #34, #207, .T. ) ;
#95 = FACE_OUTER_BOUND ( 'NONE', #302, .T. ) ;
#96 = AXIS2_PLACEMENT_3D ( 'NONE', #123, #224, #199 ) ;
#97 = CARTESIAN_POINT ( 'NONE',  ( -8.000000000000000000, 0.000000000000000000, 257.0000000000000000 ) ) ;
#98 = APPROVAL_STATUS ( 'not_yet_approved' ) ;
#99 = DIRECTION ( 'NONE',  ( -0.000000000000000000, -0.000000000000000000, -1.000000000000000000 ) ) ;
#100 = EDGE_CURVE ( 'NONE', #284, #137, #46, .T. ) ;
#101 = CARTESIAN_POINT ( 'NONE',  ( 0.000000000000000000, 0.000000000000000000, 7.000000000000000000 ) ) ;
#102 = VERTEX_POINT ( 'NONE', #9 ) ;
#103 = AXIS2_PLACEMENT_3D ( 'NONE', #166, #81, #35 ) ;
#104 = LOCAL_TIME ( 3, 17, 35.00000000000000000, #148 ) ;
#105 = CARTESIAN_POINT ( 'NONE',  ( 0.000000000000000000, 0.000000000000000000, 0.000000000000000000 ) ) ;
#106 = CIRCLE ( 'NONE', #229, 8.000000000000000000 ) ;
#107 = EDGE_CURVE ( 'NONE', #137, #284, #50, .T. ) ;
#108 = CARTESIAN_POINT ( 'NONE',  ( 0.000000000000000000, 0.000000000000000000, 0.000000000000000000 ) ) ;
#109 = ORIENTED_EDGE ( 'NONE', *, *, #294, .T. ) ;
#110 = MECHANICAL_CONTEXT ( 'NONE', #21, 'mechanical' ) ;
#111 = LOCAL_TIME ( 3, 17, 35.00000000000000000, #93 ) ;
#112 = CYLINDRICAL_SURFACE ( 'NONE', #121, 11.00000000000000000 ) ;
#113 = PERSON_AND_ORGANIZATION_ROLE ( 'design_owner' ) ;
#114 = FACE_OUTER_BOUND ( 'NONE', #131, .T. ) ;
#115 = ORIENTED_EDGE ( 'NONE', *, *, #173, .T. ) ;
#116 = APPROVAL_DATE_TIME ( #42, #280 ) ;
#117 = AXIS2_PLACEMENT_3D ( 'NONE', #43, #70, #174 ) ;
#118 = EDGE_CURVE ( 'NONE', #102, #62, #158, .T. ) ;
#119 = DIRECTION ( 'NONE',  ( -1.000000000000000000, 0.000000000000000000, 0.000000000000000000 ) ) ;
#120 = COORDINATED_UNIVERSAL_TIME_OFFSET ( 1, 0, .AHEAD. ) ;
#121 = AXIS2_PLACEMENT_3D ( 'NONE', #61, #17, #247 ) ;
#122 = PRODUCT_DEFINITION_FORMATION_WITH_SPECIFIED_SOURCE ( 'LIBOVOLNÝ', '', #51, .NOT_KNOWN. ) ;
#123 = CARTESIAN_POINT ( 'NONE',  ( 0.000000000000000000, 0.000000000000000000, 0.000000000000000000 ) ) ;
#124 = EDGE_CURVE ( 'NONE', #271, #305, #130, .T. ) ;
#125 = SHAPE_DEFINITION_REPRESENTATION ( #269, #146 ) ;
#126 = DIRECTION ( 'NONE',  ( 1.000000000000000000, 0.000000000000000000, 0.000000000000000000 ) ) ;
#127 = PLANE ( 'NONE',  #28 ) ;
#128 = AXIS2_PLACEMENT_3D ( 'NONE', #105, #285, #287 ) ;
#129 = ADVANCED_FACE ( 'NONE', ( #282 ), #49, .T. ) ;
#130 = CIRCLE ( 'NONE', #300, 11.00000000000000000 ) ;
#131 = EDGE_LOOP ( 'NONE', ( #230, #304, #219, #276 ) ) ;
#132 =( NAMED_UNIT ( * ) SI_UNIT ( $, .STERADIAN. ) SOLID_ANGLE_UNIT ( ) );
#133 = ORIENTED_EDGE ( 'NONE', *, *, #240, .F. ) ;
#134 = ORIENTED_EDGE ( 'NONE', *, *, #188, .F. ) ;
#135 = ORIENTED_EDGE ( 'NONE', *, *, #33, .F. ) ;
#136 = ORGANIZATION ( 'NEURÈENÝ', 'NEURÈENÝ', '' ) ;
#137 = VERTEX_POINT ( 'NONE', #289 ) ;
#138 = VERTEX_POINT ( 'NONE', #97 ) ;
#139 = DIRECTION ( 'NONE',  ( 0.000000000000000000, 0.000000000000000000, -1.000000000000000000 ) ) ;
#140 = CALENDAR_DATE ( 2022, 1, 7 ) ;
#141 = CC_DESIGN_PERSON_AND_ORGANIZATION_ASSIGNMENT ( #4, #237, ( #122 ) ) ;
#142 = PERSON_AND_ORGANIZATION ( #45, #136 ) ;
#143 = AXIS2_PLACEMENT_3D ( 'NONE', #259, #274, #64 ) ;
#144 = CC_DESIGN_SECURITY_CLASSIFICATION ( #57, ( #122 ) ) ;
#145 = COORDINATED_UNIVERSAL_TIME_OFFSET ( 1, 0, .AHEAD. ) ;
#146 = ADVANCED_BREP_SHAPE_REPRESENTATION ( '7e0b', ( #266, #198 ), #30 ) ;
#147 = DIRECTION ( 'NONE',  ( -1.000000000000000000, 1.224646799147353207E-16, 0.000000000000000000 ) ) ;
#148 = COORDINATED_UNIVERSAL_TIME_OFFSET ( 1, 0, .AHEAD. ) ;
#149 = CARTESIAN_POINT ( 'NONE',  ( 0.000000000000000000, 0.000000000000000000, 7.000000000000000000 ) ) ;
#150 = CIRCLE ( 'NONE', #117, 11.00000000000000000 ) ;
#151 = CARTESIAN_POINT ( 'NONE',  ( 0.000000000000000000, 0.000000000000000000, 7.000000000000000000 ) ) ;
#152 = DIRECTION ( 'NONE',  ( 1.000000000000000000, 0.000000000000000000, 0.000000000000000000 ) ) ;
#153 = CC_DESIGN_DATE_AND_TIME_ASSIGNMENT ( #175, #196, ( #57 ) ) ;
#154 = AXIS2_PLACEMENT_3D ( 'NONE', #249, #214, #273 ) ;
#155 = EDGE_CURVE ( 'NONE', #161, #138, #65, .T. ) ;
#156 = CARTESIAN_POINT ( 'NONE',  ( 11.00000000000000000, 1.347111479062088405E-15, 7.000000000000000000 ) ) ;
#157 = CIRCLE ( 'NONE', #90, 11.00000000000000000 ) ;
#158 = CIRCLE ( 'NONE', #128, 11.00000000000000000 ) ;
#159 = DIRECTION ( 'NONE',  ( 0.000000000000000000, 0.000000000000000000, 1.000000000000000000 ) ) ;
#160 = ORIENTED_EDGE ( 'NONE', *, *, #33, .T. ) ;
#161 = VERTEX_POINT ( 'NONE', #1 ) ;
#162 = CARTESIAN_POINT ( 'NONE',  ( 8.000000000000000000, 9.797174393178825657E-16, 257.0000000000000000 ) ) ;
#163 = LINE ( 'NONE', #52, #54 ) ;
#164 = ORIENTED_EDGE ( 'NONE', *, *, #107, .F. ) ;
#165 = VECTOR ( 'NONE', #32, 1000.000000000000000 ) ;
#166 = CARTESIAN_POINT ( 'NONE',  ( 0.000000000000000000, 0.000000000000000000, 257.0000000000000000 ) ) ;
#167 = DIRECTION ( 'NONE',  ( 0.000000000000000000, 0.000000000000000000, 1.000000000000000000 ) ) ;
#168 = ADVANCED_FACE ( 'NONE', ( #95 ), #127, .T. ) ;
#169 = PERSON_AND_ORGANIZATION ( #45, #136 ) ;
#170 = AXIS2_PLACEMENT_3D ( 'NONE', #288, #74, #178 ) ;
#171 = CARTESIAN_POINT ( 'NONE',  ( -8.200000000000001066, 1.004210375300829674E-15, 7.200000000000011724 ) ) ;
#172 = PERSON_AND_ORGANIZATION ( #45, #136 ) ;
#173 = EDGE_CURVE ( 'NONE', #251, #137, #73, .T. ) ;
#174 = DIRECTION ( 'NONE',  ( 1.000000000000000000, 0.000000000000000000, 0.000000000000000000 ) ) ;
#175 = DATE_AND_TIME ( #263, #239 ) ;
#176 = LINE ( 'NONE', #267, #244 ) ;
#177 = AXIS2_PLACEMENT_3D ( 'NONE', #171, #262, #147 ) ;
#178 = DIRECTION ( 'NONE',  ( 1.000000000000000000, 0.000000000000000000, 0.000000000000000000 ) ) ;
#179 = ADVANCED_FACE ( 'NONE', ( #3 ), #241, .F. ) ;
#180 = PERSON_AND_ORGANIZATION_ROLE ( 'design_supplier' ) ;
#181 = CIRCLE ( 'NONE', #19, 0.1999999999999996503 ) ;
#182 = ORIENTED_EDGE ( 'NONE', *, *, #124, .T. ) ;
#183 = ORIENTED_EDGE ( 'NONE', *, *, #188, .T. ) ;
#184 = DIRECTION ( 'NONE',  ( -0.000000000000000000, -0.000000000000000000, -1.000000000000000000 ) ) ;
#185 = ORIENTED_EDGE ( 'NONE', *, *, #235, .F. ) ;
#186 = AXIS2_PLACEMENT_3D ( 'NONE', #191, #167, #299 ) ;
#187 = DIRECTION ( 'NONE',  ( 1.000000000000000000, 0.000000000000000000, 0.000000000000000000 ) ) ;
#188 = EDGE_CURVE ( 'NONE', #62, #102, #150, .T. ) ;
#189 = ORIENTED_EDGE ( 'NONE', *, *, #235, .T. ) ;
#190 = APPLICATION_PROTOCOL_DEFINITION ( 'international standard', 'config_control_design', 1994, #21 ) ;
#191 = CARTESIAN_POINT ( 'NONE',  ( 0.000000000000000000, 0.000000000000000000, 7.200000000000011724 ) ) ;
#192 = ORIENTED_EDGE ( 'NONE', *, *, #173, .F. ) ;
#193 = APPROVAL_STATUS ( 'not_yet_approved' ) ;
#194 = ORIENTED_EDGE ( 'NONE', *, *, #118, .F. ) ;
#195 = ORIENTED_EDGE ( 'NONE', *, *, #94, .F. ) ;
#196 = DATE_TIME_ROLE ( 'classification_date' ) ;
#197 = DIRECTION ( 'NONE',  ( 1.000000000000000000, 0.000000000000000000, 0.000000000000000000 ) ) ;
#198 = AXIS2_PLACEMENT_3D ( 'NONE', #108, #301, #208 ) ;
#199 = DIRECTION ( 'NONE',  ( 1.000000000000000000, 0.000000000000000000, -0.000000000000000000 ) ) ;
#200 = APPROVAL_DATE_TIME ( #307, #67 ) ;
#201 = DIRECTION ( 'NONE',  ( 0.000000000000000000, 0.000000000000000000, 1.000000000000000000 ) ) ;
#202 = CC_DESIGN_DATE_AND_TIME_ASSIGNMENT ( #243, #291, ( #56 ) ) ;
#203 = DIRECTION ( 'NONE',  ( -0.000000000000000000, -0.000000000000000000, -1.000000000000000000 ) ) ;
#204 = AXIS2_PLACEMENT_3D ( 'NONE', #151, #201, #27 ) ;
#205 = CC_DESIGN_APPROVAL ( #280, ( #56 ) ) ;
#206 = CARTESIAN_POINT ( 'NONE',  ( 0.000000000000000000, 0.000000000000000000, 7.000000000000000000 ) ) ;
#207 = CIRCLE ( 'NONE', #227, 8.000000000000000000 ) ;
#208 = DIRECTION ( 'NONE',  ( 1.000000000000000000, 0.000000000000000000, 0.000000000000000000 ) ) ;
#209 = EDGE_LOOP ( 'NONE', ( #195, #115, #89, #135 ) ) ;
#210 = CC_DESIGN_PERSON_AND_ORGANIZATION_ASSIGNMENT ( #169, #75, ( #56 ) ) ;
#211 = DIRECTION ( 'NONE',  ( -0.000000000000000000, -0.000000000000000000, -1.000000000000000000 ) ) ;
#212 = FACE_OUTER_BOUND ( 'NONE', #13, .T. ) ;
#213 = CIRCLE ( 'NONE', #68, 8.000000000000000000 ) ;
#214 = DIRECTION ( 'NONE',  ( 0.000000000000000000, 0.000000000000000000, 1.000000000000000000 ) ) ;
#215 = EDGE_LOOP ( 'NONE', ( #182, #109 ) ) ;
#216 = APPLICATION_PROTOCOL_DEFINITION ( 'international standard', 'config_control_design', 1994, #18 ) ;
#217 = ORIENTED_EDGE ( 'NONE', *, *, #10, .T. ) ;
#218 = ADVANCED_FACE ( 'NONE', ( #264, #72 ), #6, .T. ) ;
#219 = ORIENTED_EDGE ( 'NONE', *, *, #306, .T. ) ;
#220 = APPROVAL_DATE_TIME ( #222, #290 ) ;
#221 = DIRECTION ( 'NONE',  ( 1.000000000000000000, 0.000000000000000000, -0.000000000000000000 ) ) ;
#222 = DATE_AND_TIME ( #140, #104 ) ;
#223 = CC_DESIGN_APPROVAL ( #67, ( #57 ) ) ;
#224 = DIRECTION ( 'NONE',  ( 0.000000000000000000, 0.000000000000000000, 1.000000000000000000 ) ) ;
#225 = DIRECTION ( 'NONE',  ( 1.000000000000000000, 0.000000000000000000, 0.000000000000000000 ) ) ;
#226 = DIRECTION ( 'NONE',  ( -0.000000000000000000, -0.000000000000000000, -1.000000000000000000 ) ) ;
#227 = AXIS2_PLACEMENT_3D ( 'NONE', #23, #7, #126 ) ;
#228 = PRODUCT_RELATED_PRODUCT_CATEGORY ( 'detail', '', ( #51 ) ) ;
#229 = AXIS2_PLACEMENT_3D ( 'NONE', #77, #63, #29 ) ;
#230 = ORIENTED_EDGE ( 'NONE', *, *, #261, .F. ) ;
#231 = CC_DESIGN_PERSON_AND_ORGANIZATION_ASSIGNMENT ( #172, #40, ( #57 ) ) ;
#232 = EDGE_LOOP ( 'NONE', ( #194, #134 ) ) ;
#233 = PERSON_AND_ORGANIZATION ( #45, #136 ) ;
#234 = CARTESIAN_POINT ( 'NONE',  ( 8.200000000000001066, 0.000000000000000000, 7.200000000000011724 ) ) ;
#235 = EDGE_CURVE ( 'NONE', #138, #251, #176, .T. ) ;
#236 = ORIENTED_EDGE ( 'NONE', *, *, #155, .F. ) ;
#237 = PERSON_AND_ORGANIZATION_ROLE ( 'creator' ) ;
#238 = CALENDAR_DATE ( 2022, 1, 7 ) ;
#239 = LOCAL_TIME ( 3, 17, 35.00000000000000000, #24 ) ;
#240 = EDGE_CURVE ( 'NONE', #138, #161, #213, .T. ) ;
#241 = PLANE ( 'NONE',  #96 ) ;
#242 = CARTESIAN_POINT ( 'NONE',  ( 0.000000000000000000, 0.000000000000000000, 257.0000000000000000 ) ) ;
#243 = DATE_AND_TIME ( #238, #111 ) ;
#244 = VECTOR ( 'NONE', #268, 1000.000000000000000 ) ;
#245 = DIRECTION ( 'NONE',  ( 0.000000000000000000, 0.000000000000000000, 1.000000000000000000 ) ) ;
#246 = ADVANCED_FACE ( 'NONE', ( #86 ), #281, .F. ) ;
#247 = DIRECTION ( 'NONE',  ( -1.000000000000000000, 0.000000000000000000, 0.000000000000000000 ) ) ;
#248 = VECTOR ( 'NONE', #184, 1000.000000000000000 ) ;
#249 = CARTESIAN_POINT ( 'NONE',  ( 0.000000000000000000, 0.000000000000000000, 7.200000000000011724 ) ) ;
#250 = EDGE_CURVE ( 'NONE', #34, #251, #106, .T. ) ;
#251 = VERTEX_POINT ( 'NONE', #275 ) ;
#252 = ORIENTED_EDGE ( 'NONE', *, *, #261, .T. ) ;
#253 = EDGE_LOOP ( 'NONE', ( #37, #252, #183, #78 ) ) ;
#254 = LINE ( 'NONE', #162, #165 ) ;
#255 = CYLINDRICAL_SURFACE ( 'NONE', #103, 8.000000000000000000 ) ;
#256 = ORIENTED_EDGE ( 'NONE', *, *, #107, .T. ) ;
#257 = AXIS2_PLACEMENT_3D ( 'NONE', #206, #226, #197 ) ;
#258 = APPROVAL_ROLE ( '' ) ;
#259 = CARTESIAN_POINT ( 'NONE',  ( 0.000000000000000000, 0.000000000000000000, 7.000000000000000000 ) ) ;
#260 = APPROVAL_STATUS ( 'not_yet_approved' ) ;
#261 = EDGE_CURVE ( 'NONE', #305, #62, #163, .T. ) ;
#262 = DIRECTION ( 'NONE',  ( 1.224646799147353207E-16, 1.000000000000000000, -0.000000000000000000 ) ) ;
#263 = CALENDAR_DATE ( 2022, 1, 7 ) ;
#264 = FACE_BOUND ( 'NONE', #31, .T. ) ;
#265 = APPROVAL_ROLE ( '' ) ;
#266 = MANIFOLD_SOLID_BREP ( 'Zaoblit1', #39 ) ;
#267 = CARTESIAN_POINT ( 'NONE',  ( -8.000000000000000000, 0.000000000000000000, 257.0000000000000000 ) ) ;
#268 = DIRECTION ( 'NONE',  ( -0.000000000000000000, -0.000000000000000000, -1.000000000000000000 ) ) ;
#269 = PRODUCT_DEFINITION_SHAPE ( 'NONE', 'NONE',  #56 ) ;
#270 = LINE ( 'NONE', #84, #248 ) ;
#271 = VERTEX_POINT ( 'NONE', #298 ) ;
#272 = APPROVAL_PERSON_ORGANIZATION ( #38, #67, #91 ) ;
#273 = DIRECTION ( 'NONE',  ( 1.000000000000000000, 0.000000000000000000, 0.000000000000000000 ) ) ;
#274 = DIRECTION ( 'NONE',  ( -0.000000000000000000, -0.000000000000000000, -1.000000000000000000 ) ) ;
#275 = CARTESIAN_POINT ( 'NONE',  ( -8.000000000000000000, 0.000000000000000000, 7.200000000000011724 ) ) ;
#276 = ORIENTED_EDGE ( 'NONE', *, *, #118, .T. ) ;
#277 = CARTESIAN_POINT ( 'NONE',  ( 0.000000000000000000, 0.000000000000000000, 7.000000000000000000 ) ) ;
#278 = CYLINDRICAL_SURFACE ( 'NONE', #143, 11.00000000000000000 ) ;
#279 = CALENDAR_DATE ( 2022, 1, 7 ) ;
#280 = APPROVAL ( #193, 'NEURÈENÝ' ) ;
#281 = TOROIDAL_SURFACE ( 'NONE', #154, 8.200000000000001066, 0.2000000000000000111 ) ;
#282 = FACE_OUTER_BOUND ( 'NONE', #36, .T. ) ;
#283 = LOCAL_TIME ( 3, 17, 35.00000000000000000, #145 ) ;
#284 = VERTEX_POINT ( 'NONE', #15 ) ;
#285 = DIRECTION ( 'NONE',  ( 0.000000000000000000, 0.000000000000000000, 1.000000000000000000 ) ) ;
#286 = ADVANCED_FACE ( 'NONE', ( #295 ), #255, .T. ) ;
#287 = DIRECTION ( 'NONE',  ( 1.000000000000000000, 0.000000000000000000, 0.000000000000000000 ) ) ;
#288 = CARTESIAN_POINT ( 'NONE',  ( 0.000000000000000000, 0.000000000000000000, 257.0000000000000000 ) ) ;
#289 = CARTESIAN_POINT ( 'NONE',  ( -8.200000000000001066, 1.004210375300829674E-15, 7.000000000000006217 ) ) ;
#290 = APPROVAL ( #260, 'NEURÈENÝ' ) ;
#291 = DATE_TIME_ROLE ( 'creation_date' ) ;
#292 = AXIS2_PLACEMENT_3D ( 'NONE', #22, #203, #119 ) ;
#293 = CC_DESIGN_APPROVAL ( #290, ( #122 ) ) ;
#294 = EDGE_CURVE ( 'NONE', #305, #271, #157, .T. ) ;
#295 = FACE_OUTER_BOUND ( 'NONE', #87, .T. ) ;
#296 = ORIENTED_EDGE ( 'NONE', *, *, #250, .F. ) ;
#297 = ORIENTED_EDGE ( 'NONE', *, *, #100, .T. ) ;
#298 = CARTESIAN_POINT ( 'NONE',  ( -11.00000000000000000, 0.000000000000000000, 7.000000000000000000 ) ) ;
#299 = DIRECTION ( 'NONE',  ( 1.000000000000000000, 0.000000000000000000, 0.000000000000000000 ) ) ;
#300 = AXIS2_PLACEMENT_3D ( 'NONE', #101, #245, #225 ) ;
#301 = DIRECTION ( 'NONE',  ( 0.000000000000000000, 0.000000000000000000, 1.000000000000000000 ) ) ;
#302 = EDGE_LOOP ( 'NONE', ( #12, #85 ) ) ;
#303 = PERSON_AND_ORGANIZATION ( #45, #136 ) ;
#304 = ORIENTED_EDGE ( 'NONE', *, *, #124, .F. ) ;
#305 = VERTEX_POINT ( 'NONE', #156 ) ;
#306 = EDGE_CURVE ( 'NONE', #271, #102, #270, .T. ) ;
#307 = DATE_AND_TIME ( #279, #283 ) ;
ENDSEC;
END-ISO-10303-21;
