ISO-10303-21;
HEADER;
FILE_DESCRIPTION (( 'STEP AP203' ),
    '1' );
FILE_NAME ('a669.STEP',
    '2022-07-07T12:47:56',
    ( '' ),
    ( '' ),
    'SwSTEP 2.0',
    'SolidWorks 2019',
    '' );
FILE_SCHEMA (( 'CONFIG_CONTROL_DESIGN' ));
ENDSEC;

DATA;
#1 = CIRCLE ( 'NONE', #208, 4.000000000000000000 ) ;
#2 = APPROVAL_PERSON_ORGANIZATION ( #166, #214, #216 ) ;
#3 = DIRECTION ( 'NONE',  ( 0.000000000000000000, 0.000000000000000000, 1.000000000000000000 ) ) ;
#4 = EDGE_CURVE ( 'NONE', #292, #82, #79, .T. ) ;
#5 = EDGE_LOOP ( 'NONE', ( #269, #105 ) ) ;
#6 = CLOSED_SHELL ( 'NONE', ( #98, #284, #108, #271, #189, #123, #55, #173, #202 ) ) ;
#7 = VERTEX_POINT ( 'NONE', #167 ) ;
#8 = ORIENTED_EDGE ( 'NONE', *, *, #94, .T. ) ;
#9 = DIRECTION ( 'NONE',  ( 1.000000000000000000, 0.000000000000000000, 0.000000000000000000 ) ) ;
#10 = MANIFOLD_SOLID_BREP ( 'Zaoblit1', #6 ) ;
#11 = AXIS2_PLACEMENT_3D ( 'NONE', #35, #207, #95 ) ;
#12 = DIRECTION ( 'NONE',  ( 1.000000000000000000, 0.000000000000000000, -0.000000000000000000 ) ) ;
#13 = FACE_OUTER_BOUND ( 'NONE', #5, .T. ) ;
#14 = DIRECTION ( 'NONE',  ( 0.000000000000000000, 0.000000000000000000, 1.000000000000000000 ) ) ;
#15 = CC_DESIGN_PERSON_AND_ORGANIZATION_ASSIGNMENT ( #44, #63, ( #235 ) ) ;
#16 = DESIGN_CONTEXT ( 'detailed design', #246, 'design' ) ;
#17 =( NAMED_UNIT ( * ) SI_UNIT ( $, .STERADIAN. ) SOLID_ANGLE_UNIT ( ) );
#18 = VECTOR ( 'NONE', #297, 1000.000000000000000 ) ;
#19 = FACE_OUTER_BOUND ( 'NONE', #148, .T. ) ;
#20 = ORIENTED_EDGE ( 'NONE', *, *, #156, .F. ) ;
#21 = CC_DESIGN_PERSON_AND_ORGANIZATION_ASSIGNMENT ( #261, #78, ( #194 ) ) ;
#22 = PERSON_AND_ORGANIZATION ( #73, #50 ) ;
#23 = AXIS2_PLACEMENT_3D ( 'NONE', #275, #279, #116 ) ;
#24 = APPROVAL_DATE_TIME ( #188, #214 ) ;
#25 = CARTESIAN_POINT ( 'NONE',  ( 0.000000000000000000, 0.000000000000000000, 3.000000000000000000 ) ) ;
#26 = PERSON_AND_ORGANIZATION_ROLE ( 'classification_officer' ) ;
#27 = CARTESIAN_POINT ( 'NONE',  ( 0.000000000000000000, 0.000000000000000000, 0.000000000000000000 ) ) ;
#28 = VERTEX_POINT ( 'NONE', #171 ) ;
#29 = ADVANCED_BREP_SHAPE_REPRESENTATION ( 'a669', ( #10, #23 ), #154 ) ;
#30 = AXIS2_PLACEMENT_3D ( 'NONE', #85, #295, #137 ) ;
#31 = ORIENTED_EDGE ( 'NONE', *, *, #262, .F. ) ;
#32 = DIRECTION ( 'NONE',  ( 0.000000000000000000, 0.000000000000000000, -1.000000000000000000 ) ) ;
#33 = CYLINDRICAL_SURFACE ( 'NONE', #184, 4.000000000000000000 ) ;
#34 = AXIS2_PLACEMENT_3D ( 'NONE', #125, #287, #77 ) ;
#35 = CARTESIAN_POINT ( 'NONE',  ( 0.000000000000000000, 0.000000000000000000, 3.000000000000000000 ) ) ;
#36 = EDGE_CURVE ( 'NONE', #265, #197, #244, .T. ) ;
#37 = FACE_OUTER_BOUND ( 'NONE', #263, .T. ) ;
#38 = CARTESIAN_POINT ( 'NONE',  ( 0.000000000000000000, 0.000000000000000000, 3.000000000000000000 ) ) ;
#39 = PERSON_AND_ORGANIZATION ( #73, #50 ) ;
#40 = AXIS2_PLACEMENT_3D ( 'NONE', #266, #243, #146 ) ;
#41 = EDGE_CURVE ( 'NONE', #305, #7, #304, .T. ) ;
#42 =( LENGTH_UNIT ( ) NAMED_UNIT ( * ) SI_UNIT ( .MILLI., .METRE. ) );
#43 = PERSON_AND_ORGANIZATION ( #73, #50 ) ;
#44 = PERSON_AND_ORGANIZATION ( #73, #50 ) ;
#45 = AXIS2_PLACEMENT_3D ( 'NONE', #152, #180, #12 ) ;
#46 = APPROVAL ( #161, 'NEURÈENÝ' ) ;
#47 = PERSON_AND_ORGANIZATION ( #73, #50 ) ;
#48 = DIRECTION ( 'NONE',  ( 0.000000000000000000, 0.000000000000000000, 1.000000000000000000 ) ) ;
#49 = SECURITY_CLASSIFICATION_LEVEL ( 'unclassified' ) ;
#50 = ORGANIZATION ( 'NEURÈENÝ', 'NEURÈENÝ', '' ) ;
#51 = ORIENTED_EDGE ( 'NONE', *, *, #59, .F. ) ;
#52 = LINE ( 'NONE', #222, #107 ) ;
#53 = EDGE_LOOP ( 'NONE', ( #93, #101 ) ) ;
#54 = TOROIDAL_SURFACE ( 'NONE', #30, 2.449999999999999734, 0.2000000000000000111 ) ;
#55 = ADVANCED_FACE ( 'NONE', ( #291 ), #150, .T. ) ;
#56 = ORIENTED_EDGE ( 'NONE', *, *, #257, .F. ) ;
#57 = DIRECTION ( 'NONE',  ( -0.000000000000000000, -0.000000000000000000, -1.000000000000000000 ) ) ;
#58 = CARTESIAN_POINT ( 'NONE',  ( 0.000000000000000000, 0.000000000000000000, 0.000000000000000000 ) ) ;
#59 = EDGE_CURVE ( 'NONE', #280, #267, #112, .T. ) ;
#60 = APPROVAL_PERSON_ORGANIZATION ( #39, #128, #258 ) ;
#61 = CARTESIAN_POINT ( 'NONE',  ( -2.250000000000000000, 0.000000000000000000, 253.0000000000000000 ) ) ;
#62 = DIRECTION ( 'NONE',  ( 1.000000000000000000, 0.000000000000000000, 0.000000000000000000 ) ) ;
#63 = PERSON_AND_ORGANIZATION_ROLE ( 'creator' ) ;
#64 = EDGE_CURVE ( 'NONE', #117, #7, #52, .T. ) ;
#65 = DIRECTION ( 'NONE',  ( -0.000000000000000000, -0.000000000000000000, -1.000000000000000000 ) ) ;
#66 = AXIS2_PLACEMENT_3D ( 'NONE', #27, #129, #9 ) ;
#67 = LOCAL_TIME ( 14, 47, 56.00000000000000000, #162 ) ;
#68 = PERSON_AND_ORGANIZATION_ROLE ( 'design_owner' ) ;
#69 = MECHANICAL_CONTEXT ( 'NONE', #211, 'mechanical' ) ;
#70 = ORIENTED_EDGE ( 'NONE', *, *, #104, .F. ) ;
#71 = CARTESIAN_POINT ( 'NONE',  ( 2.449999999999999734, 0.000000000000000000, 3.000000000000004441 ) ) ;
#72 = CIRCLE ( 'NONE', #11, 4.000000000000000000 ) ;
#73 = PERSON ( 'NEURÈENÝ', 'NEURÈENÝ', 'NEURÈENÝ', ('NEURÈENÝ'), ('NEURÈENÝ'), ('NEURÈENÝ') ) ;
#74 = EDGE_CURVE ( 'NONE', #82, #292, #298, .T. ) ;
#75 = CARTESIAN_POINT ( 'NONE',  ( 0.000000000000000000, 0.000000000000000000, 3.000000000000000000 ) ) ;
#76 = CALENDAR_DATE ( 2022, 7, 7 ) ;
#77 = DIRECTION ( 'NONE',  ( 1.000000000000000000, 0.000000000000000000, 0.000000000000000000 ) ) ;
#78 = PERSON_AND_ORGANIZATION_ROLE ( 'creator' ) ;
#79 = CIRCLE ( 'NONE', #135, 2.250000000000000000 ) ;
#80 = EDGE_LOOP ( 'NONE', ( #8, #174 ) ) ;
#81 = ORIENTED_EDGE ( 'NONE', *, *, #206, .T. ) ;
#82 = VERTEX_POINT ( 'NONE', #285 ) ;
#83 = DIRECTION ( 'NONE',  ( 1.000000000000000000, 0.000000000000000000, 0.000000000000000000 ) ) ;
#84 = CARTESIAN_POINT ( 'NONE',  ( 0.000000000000000000, 0.000000000000000000, 3.200000000000008171 ) ) ;
#85 = CARTESIAN_POINT ( 'NONE',  ( 0.000000000000000000, 0.000000000000000000, 3.200000000000008171 ) ) ;
#86 = LOCAL_TIME ( 14, 47, 56.00000000000000000, #192 ) ;
#87 = CARTESIAN_POINT ( 'NONE',  ( 2.250000000000000000, 2.755455298081544285E-16, 253.0000000000000000 ) ) ;
#88 =( NAMED_UNIT ( * ) PLANE_ANGLE_UNIT ( ) SI_UNIT ( $, .RADIAN. ) );
#89 = CARTESIAN_POINT ( 'NONE',  ( 0.000000000000000000, 0.000000000000000000, 3.000000000000000000 ) ) ;
#90 = APPLICATION_PROTOCOL_DEFINITION ( 'international standard', 'config_control_design', 1994, #211 ) ;
#91 = LOCAL_TIME ( 14, 47, 56.00000000000000000, #158 ) ;
#92 = DIRECTION ( 'NONE',  ( -0.000000000000000000, -0.000000000000000000, -1.000000000000000000 ) ) ;
#93 = ORIENTED_EDGE ( 'NONE', *, *, #293, .T. ) ;
#94 = EDGE_CURVE ( 'NONE', #117, #28, #224, .T. ) ;
#95 = DIRECTION ( 'NONE',  ( 1.000000000000000000, 0.000000000000000000, 0.000000000000000000 ) ) ;
#96 = VECTOR ( 'NONE', #153, 1000.000000000000000 ) ;
#97 = PRODUCT ( 'a669', 'a669', '', ( #69 ) ) ;
#98 = ADVANCED_FACE ( 'NONE', ( #145 ), #238, .F. ) ;
#99 = DATE_AND_TIME ( #143, #288 ) ;
#100 = DIRECTION ( 'NONE',  ( 0.000000000000000000, 0.000000000000000000, 1.000000000000000000 ) ) ;
#101 = ORIENTED_EDGE ( 'NONE', *, *, #104, .T. ) ;
#102 = CC_DESIGN_APPROVAL ( #128, ( #194 ) ) ;
#103 = ORIENTED_EDGE ( 'NONE', *, *, #64, .F. ) ;
#104 = EDGE_CURVE ( 'NONE', #197, #267, #268, .T. ) ;
#105 = ORIENTED_EDGE ( 'NONE', *, *, #4, .T. ) ;
#106 = PLANE ( 'NONE',  #45 ) ;
#107 = VECTOR ( 'NONE', #191, 1000.000000000000000 ) ;
#108 = ADVANCED_FACE ( 'NONE', ( #37 ), #33, .T. ) ;
#109 = DIRECTION ( 'NONE',  ( -0.000000000000000000, -0.000000000000000000, -1.000000000000000000 ) ) ;
#110 = LINE ( 'NONE', #61, #165 ) ;
#111 = CARTESIAN_POINT ( 'NONE',  ( 0.000000000000000000, 0.000000000000000000, 253.0000000000000000 ) ) ;
#112 = CIRCLE ( 'NONE', #219, 0.2000000000000000944 ) ;
#113 = CYLINDRICAL_SURFACE ( 'NONE', #231, 4.000000000000000000 ) ;
#114 = EDGE_CURVE ( 'NONE', #28, #305, #134, .T. ) ;
#115 = EDGE_LOOP ( 'NONE', ( #163, #172, #186, #147 ) ) ;
#116 = DIRECTION ( 'NONE',  ( 1.000000000000000000, 0.000000000000000000, 0.000000000000000000 ) ) ;
#117 = VERTEX_POINT ( 'NONE', #225 ) ;
#118 = DATE_AND_TIME ( #232, #67 ) ;
#119 = AXIS2_PLACEMENT_3D ( 'NONE', #75, #48, #170 ) ;
#120 = DATE_AND_TIME ( #233, #91 ) ;
#121 = ORIENTED_EDGE ( 'NONE', *, *, #74, .F. ) ;
#122 = CALENDAR_DATE ( 2022, 7, 7 ) ;
#123 = ADVANCED_FACE ( 'NONE', ( #273 ), #106, .F. ) ;
#124 = PERSON_AND_ORGANIZATION_ROLE ( 'design_supplier' ) ;
#125 = CARTESIAN_POINT ( 'NONE',  ( 0.000000000000000000, 0.000000000000000000, 3.200000000000008171 ) ) ;
#126 = APPROVAL_STATUS ( 'not_yet_approved' ) ;
#127 = DIRECTION ( 'NONE',  ( 0.000000000000000000, -1.000000000000000000, 0.000000000000000000 ) ) ;
#128 = APPROVAL ( #306, 'NEURÈENÝ' ) ;
#129 = DIRECTION ( 'NONE',  ( 0.000000000000000000, 0.000000000000000000, 1.000000000000000000 ) ) ;
#130 = AXIS2_PLACEMENT_3D ( 'NONE', #215, #3, #218 ) ;
#131 = SECURITY_CLASSIFICATION ( '', '', #49 ) ;
#132 = CARTESIAN_POINT ( 'NONE',  ( 0.000000000000000000, 0.000000000000000000, 253.0000000000000000 ) ) ;
#133 = CARTESIAN_POINT ( 'NONE',  ( 0.000000000000000000, 0.000000000000000000, 253.0000000000000000 ) ) ;
#134 = LINE ( 'NONE', #177, #96 ) ;
#135 = AXIS2_PLACEMENT_3D ( 'NONE', #133, #100, #289 ) ;
#136 = DIRECTION ( 'NONE',  ( 1.000000000000000000, 0.000000000000000000, -0.000000000000000000 ) ) ;
#137 = DIRECTION ( 'NONE',  ( 1.000000000000000000, 0.000000000000000000, 0.000000000000000000 ) ) ;
#138 = CARTESIAN_POINT ( 'NONE',  ( 2.250000000000000000, 2.755455298081544285E-16, 253.0000000000000000 ) ) ;
#139 = ORIENTED_EDGE ( 'NONE', *, *, #41, .F. ) ;
#140 = ORIENTED_EDGE ( 'NONE', *, *, #206, .F. ) ;
#141 = APPROVAL_ROLE ( '' ) ;
#142 = DIRECTION ( 'NONE',  ( -1.000000000000000000, 0.000000000000000000, 0.000000000000000000 ) ) ;
#143 = CALENDAR_DATE ( 2022, 7, 7 ) ;
#144 = CIRCLE ( 'NONE', #204, 2.250000000000000000 ) ;
#145 = FACE_OUTER_BOUND ( 'NONE', #182, .T. ) ;
#146 = DIRECTION ( 'NONE',  ( -1.000000000000000000, 1.224646799147353207E-16, 0.000000000000000000 ) ) ;
#147 = ORIENTED_EDGE ( 'NONE', *, *, #257, .T. ) ;
#148 = EDGE_LOOP ( 'NONE', ( #256, #81, #159, #20 ) ) ;
#149 = AXIS2_PLACEMENT_3D ( 'NONE', #25, #57, #83 ) ;
#150 = CYLINDRICAL_SURFACE ( 'NONE', #260, 2.250000000000000000 ) ;
#151 = EDGE_CURVE ( 'NONE', #280, #265, #169, .T. ) ;
#152 = CARTESIAN_POINT ( 'NONE',  ( 0.000000000000000000, 0.000000000000000000, 0.000000000000000000 ) ) ;
#153 = DIRECTION ( 'NONE',  ( -0.000000000000000000, -0.000000000000000000, -1.000000000000000000 ) ) ;
#154 =( GEOMETRIC_REPRESENTATION_CONTEXT ( 3 ) GLOBAL_UNCERTAINTY_ASSIGNED_CONTEXT ( ( #276 ) ) GLOBAL_UNIT_ASSIGNED_CONTEXT ( ( #42, #88, #17 ) ) REPRESENTATION_CONTEXT ( 'NONE', 'WORKASPACE' ) );
#155 = DIRECTION ( 'NONE',  ( -1.000000000000000000, 0.000000000000000000, 0.000000000000000000 ) ) ;
#156 = EDGE_CURVE ( 'NONE', #82, #265, #110, .T. ) ;
#157 = FACE_BOUND ( 'NONE', #53, .T. ) ;
#158 = COORDINATED_UNIVERSAL_TIME_OFFSET ( 1, 0, .AHEAD. ) ;
#159 = ORIENTED_EDGE ( 'NONE', *, *, #151, .T. ) ;
#160 = CARTESIAN_POINT ( 'NONE',  ( 4.000000000000000000, 4.898587196589412829E-16, 0.000000000000000000 ) ) ;
#161 = APPROVAL_STATUS ( 'not_yet_approved' ) ;
#162 = COORDINATED_UNIVERSAL_TIME_OFFSET ( 1, 0, .AHEAD. ) ;
#163 = ORIENTED_EDGE ( 'NONE', *, *, #114, .F. ) ;
#164 = EDGE_LOOP ( 'NONE', ( #56, #139 ) ) ;
#165 = VECTOR ( 'NONE', #226, 1000.000000000000000 ) ;
#166 = PERSON_AND_ORGANIZATION ( #73, #50 ) ;
#167 = CARTESIAN_POINT ( 'NONE',  ( -4.000000000000000000, 0.000000000000000000, 0.000000000000000000 ) ) ;
#168 = SHAPE_DEFINITION_REPRESENTATION ( #217, #29 ) ;
#169 = CIRCLE ( 'NONE', #264, 2.250000000000000000 ) ;
#170 = DIRECTION ( 'NONE',  ( 1.000000000000000000, 0.000000000000000000, 0.000000000000000000 ) ) ;
#171 = CARTESIAN_POINT ( 'NONE',  ( 4.000000000000000000, 4.898587196589412829E-16, 3.000000000000000000 ) ) ;
#172 = ORIENTED_EDGE ( 'NONE', *, *, #94, .F. ) ;
#173 = ADVANCED_FACE ( 'NONE', ( #13 ), #251, .T. ) ;
#174 = ORIENTED_EDGE ( 'NONE', *, *, #262, .T. ) ;
#175 = AXIS2_PLACEMENT_3D ( 'NONE', #299, #303, #142 ) ;
#176 = DIRECTION ( 'NONE',  ( 0.000000000000000000, 0.000000000000000000, 1.000000000000000000 ) ) ;
#177 = CARTESIAN_POINT ( 'NONE',  ( 4.000000000000000000, 4.898587196589412829E-16, 3.000000000000000000 ) ) ;
#178 = DIRECTION ( 'NONE',  ( 0.000000000000000000, 0.000000000000000000, 1.000000000000000000 ) ) ;
#179 = CC_DESIGN_DATE_AND_TIME_ASSIGNMENT ( #120, #209, ( #235 ) ) ;
#180 = DIRECTION ( 'NONE',  ( 0.000000000000000000, 0.000000000000000000, 1.000000000000000000 ) ) ;
#181 = CARTESIAN_POINT ( 'NONE',  ( -2.250000000000000000, 0.000000000000000000, 3.200000000000008171 ) ) ;
#182 = EDGE_LOOP ( 'NONE', ( #242, #210, #195, #51 ) ) ;
#183 = CC_DESIGN_PERSON_AND_ORGANIZATION_ASSIGNMENT ( #213, #26, ( #131 ) ) ;
#184 = AXIS2_PLACEMENT_3D ( 'NONE', #200, #109, #155 ) ;
#185 = CC_DESIGN_APPROVAL ( #214, ( #131 ) ) ;
#186 = ORIENTED_EDGE ( 'NONE', *, *, #64, .T. ) ;
#187 = DIRECTION ( 'NONE',  ( 1.000000000000000000, 0.000000000000000000, 0.000000000000000000 ) ) ;
#188 = DATE_AND_TIME ( #76, #86 ) ;
#189 = ADVANCED_FACE ( 'NONE', ( #157, #201 ), #296, .T. ) ;
#190 = CIRCLE ( 'NONE', #212, 2.449999999999999734 ) ;
#191 = DIRECTION ( 'NONE',  ( -0.000000000000000000, -0.000000000000000000, -1.000000000000000000 ) ) ;
#192 = COORDINATED_UNIVERSAL_TIME_OFFSET ( 1, 0, .AHEAD. ) ;
#193 = DIRECTION ( 'NONE',  ( -1.000000000000000000, 0.000000000000000000, 0.000000000000000000 ) ) ;
#194 = PRODUCT_DEFINITION_FORMATION_WITH_SPECIFIED_SOURCE ( 'LIBOVOLNÝ', '', #97, .NOT_KNOWN. ) ;
#195 = ORIENTED_EDGE ( 'NONE', *, *, #293, .F. ) ;
#196 = ORIENTED_EDGE ( 'NONE', *, *, #36, .F. ) ;
#197 = VERTEX_POINT ( 'NONE', #198 ) ;
#198 = CARTESIAN_POINT ( 'NONE',  ( -2.449999999999999734, 3.000384657911015370E-16, 3.000000000000004441 ) ) ;
#199 = APPROVAL_PERSON_ORGANIZATION ( #22, #46, #141 ) ;
#200 = CARTESIAN_POINT ( 'NONE',  ( 0.000000000000000000, 0.000000000000000000, 3.000000000000000000 ) ) ;
#201 = FACE_OUTER_BOUND ( 'NONE', #80, .T. ) ;
#202 = ADVANCED_FACE ( 'NONE', ( #223 ), #54, .F. ) ;
#203 = LINE ( 'NONE', #87, #18 ) ;
#204 = AXIS2_PLACEMENT_3D ( 'NONE', #84, #272, #249 ) ;
#205 = ORIENTED_EDGE ( 'NONE', *, *, #156, .T. ) ;
#206 = EDGE_CURVE ( 'NONE', #292, #280, #203, .T. ) ;
#207 = DIRECTION ( 'NONE',  ( 0.000000000000000000, 0.000000000000000000, 1.000000000000000000 ) ) ;
#208 = AXIS2_PLACEMENT_3D ( 'NONE', #58, #176, #270 ) ;
#209 = DATE_TIME_ROLE ( 'creation_date' ) ;
#210 = ORIENTED_EDGE ( 'NONE', *, *, #36, .T. ) ;
#211 = APPLICATION_CONTEXT ( 'configuration controlled 3d designs of mechanical parts and assemblies' ) ;
#212 = AXIS2_PLACEMENT_3D ( 'NONE', #253, #92, #187 ) ;
#213 = PERSON_AND_ORGANIZATION ( #73, #50 ) ;
#214 = APPROVAL ( #126, 'NEURÈENÝ' ) ;
#215 = CARTESIAN_POINT ( 'NONE',  ( 0.000000000000000000, 0.000000000000000000, 253.0000000000000000 ) ) ;
#216 = APPROVAL_ROLE ( '' ) ;
#217 = PRODUCT_DEFINITION_SHAPE ( 'NONE', 'NONE',  #235 ) ;
#218 = DIRECTION ( 'NONE',  ( 1.000000000000000000, 0.000000000000000000, 0.000000000000000000 ) ) ;
#219 = AXIS2_PLACEMENT_3D ( 'NONE', #247, #127, #32 ) ;
#220 = EDGE_LOOP ( 'NONE', ( #196, #230, #259, #70 ) ) ;
#221 = DIRECTION ( 'NONE',  ( -0.000000000000000000, -0.000000000000000000, -1.000000000000000000 ) ) ;
#222 = CARTESIAN_POINT ( 'NONE',  ( -4.000000000000000000, 0.000000000000000000, 3.000000000000000000 ) ) ;
#223 = FACE_OUTER_BOUND ( 'NONE', #220, .T. ) ;
#224 = CIRCLE ( 'NONE', #119, 4.000000000000000000 ) ;
#225 = CARTESIAN_POINT ( 'NONE',  ( -4.000000000000000000, 0.000000000000000000, 3.000000000000000000 ) ) ;
#226 = DIRECTION ( 'NONE',  ( -0.000000000000000000, -0.000000000000000000, -1.000000000000000000 ) ) ;
#227 = CARTESIAN_POINT ( 'NONE',  ( 2.250000000000000000, 2.755455298081544285E-16, 3.200000000000008171 ) ) ;
#228 = CC_DESIGN_PERSON_AND_ORGANIZATION_ASSIGNMENT ( #47, #124, ( #194 ) ) ;
#229 = COORDINATED_UNIVERSAL_TIME_OFFSET ( 1, 0, .AHEAD. ) ;
#230 = ORIENTED_EDGE ( 'NONE', *, *, #151, .F. ) ;
#231 = AXIS2_PLACEMENT_3D ( 'NONE', #89, #65, #302 ) ;
#232 = CALENDAR_DATE ( 2022, 7, 7 ) ;
#233 = CALENDAR_DATE ( 2022, 7, 7 ) ;
#234 = LOCAL_TIME ( 14, 47, 56.00000000000000000, #229 ) ;
#235 = PRODUCT_DEFINITION ( 'NEZNÁMÝ', '', #194, #16 ) ;
#236 = DATE_TIME_ROLE ( 'classification_date' ) ;
#237 = EDGE_CURVE ( 'NONE', #265, #280, #144, .T. ) ;
#238 = TOROIDAL_SURFACE ( 'NONE', #34, 2.449999999999999734, 0.2000000000000000111 ) ;
#239 = CC_DESIGN_APPROVAL ( #46, ( #235 ) ) ;
#240 = CC_DESIGN_SECURITY_CLASSIFICATION ( #131, ( #194 ) ) ;
#241 = DATE_AND_TIME ( #122, #234 ) ;
#242 = ORIENTED_EDGE ( 'NONE', *, *, #237, .F. ) ;
#243 = DIRECTION ( 'NONE',  ( 1.224646799147353207E-16, 1.000000000000000000, -0.000000000000000000 ) ) ;
#244 = CIRCLE ( 'NONE', #40, 0.2000000000000000944 ) ;
#245 = EDGE_LOOP ( 'NONE', ( #140, #121, #205, #281 ) ) ;
#246 = APPLICATION_CONTEXT ( 'configuration controlled 3d designs of mechanical parts and assemblies' ) ;
#247 = CARTESIAN_POINT ( 'NONE',  ( 2.449999999999999734, 0.000000000000000000, 3.200000000000008171 ) ) ;
#248 = DIRECTION ( 'NONE',  ( 1.000000000000000000, 0.000000000000000000, -0.000000000000000000 ) ) ;
#249 = DIRECTION ( 'NONE',  ( 1.000000000000000000, 0.000000000000000000, 0.000000000000000000 ) ) ;
#250 = DIRECTION ( 'NONE',  ( 0.000000000000000000, 0.000000000000000000, 1.000000000000000000 ) ) ;
#251 = PLANE ( 'NONE',  #294 ) ;
#252 = ORIENTED_EDGE ( 'NONE', *, *, #41, .T. ) ;
#253 = CARTESIAN_POINT ( 'NONE',  ( 0.000000000000000000, 0.000000000000000000, 3.000000000000000000 ) ) ;
#254 = APPLICATION_PROTOCOL_DEFINITION ( 'international standard', 'config_control_design', 1994, #246 ) ;
#255 = APPROVAL_DATE_TIME ( #118, #46 ) ;
#256 = ORIENTED_EDGE ( 'NONE', *, *, #4, .F. ) ;
#257 = EDGE_CURVE ( 'NONE', #7, #305, #1, .T. ) ;
#258 = APPROVAL_ROLE ( '' ) ;
#259 = ORIENTED_EDGE ( 'NONE', *, *, #59, .T. ) ;
#260 = AXIS2_PLACEMENT_3D ( 'NONE', #132, #221, #193 ) ;
#261 = PERSON_AND_ORGANIZATION ( #73, #50 ) ;
#262 = EDGE_CURVE ( 'NONE', #28, #117, #72, .T. ) ;
#263 = EDGE_LOOP ( 'NONE', ( #31, #307, #252, #103 ) ) ;
#264 = AXIS2_PLACEMENT_3D ( 'NONE', #274, #14, #62 ) ;
#265 = VERTEX_POINT ( 'NONE', #181 ) ;
#266 = CARTESIAN_POINT ( 'NONE',  ( -2.449999999999999734, 3.000384657911015370E-16, 3.200000000000008171 ) ) ;
#267 = VERTEX_POINT ( 'NONE', #71 ) ;
#268 = CIRCLE ( 'NONE', #149, 2.449999999999999734 ) ;
#269 = ORIENTED_EDGE ( 'NONE', *, *, #74, .T. ) ;
#270 = DIRECTION ( 'NONE',  ( 1.000000000000000000, 0.000000000000000000, 0.000000000000000000 ) ) ;
#271 = ADVANCED_FACE ( 'NONE', ( #277 ), #113, .T. ) ;
#272 = DIRECTION ( 'NONE',  ( 0.000000000000000000, 0.000000000000000000, 1.000000000000000000 ) ) ;
#273 = FACE_OUTER_BOUND ( 'NONE', #164, .T. ) ;
#274 = CARTESIAN_POINT ( 'NONE',  ( 0.000000000000000000, 0.000000000000000000, 3.200000000000008171 ) ) ;
#275 = CARTESIAN_POINT ( 'NONE',  ( 0.000000000000000000, 0.000000000000000000, 0.000000000000000000 ) ) ;
#276 = UNCERTAINTY_MEASURE_WITH_UNIT (LENGTH_MEASURE( 1.000000000000000082E-05 ), #42, 'distance_accuracy_value', 'NONE');
#277 = FACE_OUTER_BOUND ( 'NONE', #115, .T. ) ;
#278 = PRODUCT_RELATED_PRODUCT_CATEGORY ( 'detail', '', ( #97 ) ) ;
#279 = DIRECTION ( 'NONE',  ( 0.000000000000000000, 0.000000000000000000, 1.000000000000000000 ) ) ;
#280 = VERTEX_POINT ( 'NONE', #227 ) ;
#281 = ORIENTED_EDGE ( 'NONE', *, *, #237, .T. ) ;
#282 = COORDINATED_UNIVERSAL_TIME_OFFSET ( 1, 0, .AHEAD. ) ;
#283 = AXIS2_PLACEMENT_3D ( 'NONE', #38, #250, #136 ) ;
#284 = ADVANCED_FACE ( 'NONE', ( #19 ), #301, .T. ) ;
#285 = CARTESIAN_POINT ( 'NONE',  ( -2.250000000000000000, 0.000000000000000000, 253.0000000000000000 ) ) ;
#286 = APPROVAL_DATE_TIME ( #241, #128 ) ;
#287 = DIRECTION ( 'NONE',  ( 0.000000000000000000, 0.000000000000000000, 1.000000000000000000 ) ) ;
#288 = LOCAL_TIME ( 14, 47, 56.00000000000000000, #282 ) ;
#289 = DIRECTION ( 'NONE',  ( 1.000000000000000000, 0.000000000000000000, 0.000000000000000000 ) ) ;
#290 = CC_DESIGN_PERSON_AND_ORGANIZATION_ASSIGNMENT ( #43, #68, ( #97 ) ) ;
#291 = FACE_OUTER_BOUND ( 'NONE', #245, .T. ) ;
#292 = VERTEX_POINT ( 'NONE', #138 ) ;
#293 = EDGE_CURVE ( 'NONE', #267, #197, #190, .T. ) ;
#294 = AXIS2_PLACEMENT_3D ( 'NONE', #111, #178, #248 ) ;
#295 = DIRECTION ( 'NONE',  ( 0.000000000000000000, 0.000000000000000000, 1.000000000000000000 ) ) ;
#296 = PLANE ( 'NONE',  #283 ) ;
#297 = DIRECTION ( 'NONE',  ( -0.000000000000000000, -0.000000000000000000, -1.000000000000000000 ) ) ;
#298 = CIRCLE ( 'NONE', #130, 2.250000000000000000 ) ;
#299 = CARTESIAN_POINT ( 'NONE',  ( 0.000000000000000000, 0.000000000000000000, 253.0000000000000000 ) ) ;
#300 = CC_DESIGN_DATE_AND_TIME_ASSIGNMENT ( #99, #236, ( #131 ) ) ;
#301 = CYLINDRICAL_SURFACE ( 'NONE', #175, 2.250000000000000000 ) ;
#302 = DIRECTION ( 'NONE',  ( -1.000000000000000000, 0.000000000000000000, 0.000000000000000000 ) ) ;
#303 = DIRECTION ( 'NONE',  ( -0.000000000000000000, -0.000000000000000000, -1.000000000000000000 ) ) ;
#304 = CIRCLE ( 'NONE', #66, 4.000000000000000000 ) ;
#305 = VERTEX_POINT ( 'NONE', #160 ) ;
#306 = APPROVAL_STATUS ( 'not_yet_approved' ) ;
#307 = ORIENTED_EDGE ( 'NONE', *, *, #114, .T. ) ;
ENDSEC;
END-ISO-10303-21;
