ISO-10303-21;
HEADER;
FILE_DESCRIPTION (( 'STEP AP203' ),
    '1' );
FILE_NAME ('0abd.STEP',
    '2022-07-07T12:36:37',
    ( '' ),
    ( '' ),
    'SwSTEP 2.0',
    'SolidWorks 2019',
    '' );
FILE_SCHEMA (( 'CONFIG_CONTROL_DESIGN' ));
ENDSEC;

DATA;
#1 = CIRCLE ( 'NONE', #165, 3.500000000000000000 ) ;
#2 = CARTESIAN_POINT ( 'NONE',  ( 0.000000000000000000, 0.000000000000000000, 5.199999999999982414 ) ) ;
#3 = DIRECTION ( 'NONE',  ( 1.000000000000000000, 0.000000000000000000, -0.000000000000000000 ) ) ;
#4 = ADVANCED_FACE ( 'NONE', ( #54 ), #188, .F. ) ;
#5 = SECURITY_CLASSIFICATION ( '', '', #201 ) ;
#6 = ORIENTED_EDGE ( 'NONE', *, *, #153, .T. ) ;
#7 = ORIENTED_EDGE ( 'NONE', *, *, #213, .F. ) ;
#8 = DIRECTION ( 'NONE',  ( 0.000000000000000000, 0.000000000000000000, 1.000000000000000000 ) ) ;
#9 = DIRECTION ( 'NONE',  ( -1.000000000000000000, 0.000000000000000000, 0.000000000000000000 ) ) ;
#10 = CARTESIAN_POINT ( 'NONE',  ( 3.500000000000000000, 4.286263797015736595E-16, 505.0000000000000000 ) ) ;
#11 = DIRECTION ( 'NONE',  ( 1.000000000000000000, 0.000000000000000000, 0.000000000000000000 ) ) ;
#12 = CARTESIAN_POINT ( 'NONE',  ( 0.000000000000000000, 0.000000000000000000, 505.0000000000000000 ) ) ;
#13 = AXIS2_PLACEMENT_3D ( 'NONE', #105, #217, #9 ) ;
#14 = DATE_AND_TIME ( #178, #302 ) ;
#15 =( NAMED_UNIT ( * ) SI_UNIT ( $, .STERADIAN. ) SOLID_ANGLE_UNIT ( ) );
#16 = VERTEX_POINT ( 'NONE', #46 ) ;
#17 = APPROVAL_STATUS ( 'not_yet_approved' ) ;
#18 = ORIENTED_EDGE ( 'NONE', *, *, #21, .F. ) ;
#19 = COORDINATED_UNIVERSAL_TIME_OFFSET ( 1, 0, .AHEAD. ) ;
#20 = ORIENTED_EDGE ( 'NONE', *, *, #295, .F. ) ;
#21 = EDGE_CURVE ( 'NONE', #91, #75, #1, .T. ) ;
#22 = ORIENTED_EDGE ( 'NONE', *, *, #153, .F. ) ;
#23 = ORIENTED_EDGE ( 'NONE', *, *, #213, .T. ) ;
#24 = CIRCLE ( 'NONE', #261, 3.500000000000000000 ) ;
#25 = PRODUCT ( '0abd', '0abd', '', ( #135 ) ) ;
#26 = DIRECTION ( 'NONE',  ( 1.000000000000000000, 0.000000000000000000, 0.000000000000000000 ) ) ;
#27 = ADVANCED_FACE ( 'NONE', ( #51 ), #122, .T. ) ;
#28 = VERTEX_POINT ( 'NONE', #102 ) ;
#29 = CIRCLE ( 'NONE', #137, 6.000000000000000888 ) ;
#30 = ORIENTED_EDGE ( 'NONE', *, *, #278, .F. ) ;
#31 = CARTESIAN_POINT ( 'NONE',  ( 0.000000000000000000, 0.000000000000000000, 5.199999999999982414 ) ) ;
#32 = CC_DESIGN_APPROVAL ( #151, ( #226 ) ) ;
#33 = DIRECTION ( 'NONE',  ( 1.224646799147353207E-16, 1.000000000000000000, -0.000000000000000000 ) ) ;
#34 = DIRECTION ( 'NONE',  ( 1.000000000000000000, 0.000000000000000000, 0.000000000000000000 ) ) ;
#35 = ADVANCED_FACE ( 'NONE', ( #120, #282 ), #119, .T. ) ;
#36 = DIRECTION ( 'NONE',  ( -1.000000000000000000, 0.000000000000000000, 0.000000000000000000 ) ) ;
#37 = APPROVAL_STATUS ( 'not_yet_approved' ) ;
#38 = AXIS2_PLACEMENT_3D ( 'NONE', #31, #8, #266 ) ;
#39 = EDGE_CURVE ( 'NONE', #204, #16, #180, .T. ) ;
#40 = CALENDAR_DATE ( 2022, 7, 7 ) ;
#41 = AXIS2_PLACEMENT_3D ( 'NONE', #233, #214, #3 ) ;
#42 = DATE_TIME_ROLE ( 'classification_date' ) ;
#43 = PERSON_AND_ORGANIZATION ( #149, #276 ) ;
#44 = PERSON_AND_ORGANIZATION ( #149, #276 ) ;
#45 = EDGE_CURVE ( 'NONE', #303, #91, #212, .T. ) ;
#46 = CARTESIAN_POINT ( 'NONE',  ( 6.000000000000000888, 7.347880794884120722E-16, 0.000000000000000000 ) ) ;
#47 = SHAPE_DEFINITION_REPRESENTATION ( #305, #221 ) ;
#48 = EDGE_LOOP ( 'NONE', ( #300, #6, #205, #256 ) ) ;
#49 = CC_DESIGN_APPROVAL ( #264, ( #228 ) ) ;
#50 = CC_DESIGN_PERSON_AND_ORGANIZATION_ASSIGNMENT ( #90, #279, ( #226 ) ) ;
#51 = FACE_OUTER_BOUND ( 'NONE', #48, .T. ) ;
#52 = LOCAL_TIME ( 14, 36, 37.00000000000000000, #187 ) ;
#53 = DIRECTION ( 'NONE',  ( -1.000000000000000000, 0.000000000000000000, 0.000000000000000000 ) ) ;
#54 = FACE_OUTER_BOUND ( 'NONE', #215, .T. ) ;
#55 = DIRECTION ( 'NONE',  ( -1.000000000000000000, 0.000000000000000000, 0.000000000000000000 ) ) ;
#56 = CC_DESIGN_PERSON_AND_ORGANIZATION_ASSIGNMENT ( #43, #87, ( #228 ) ) ;
#57 = DIRECTION ( 'NONE',  ( 0.000000000000000000, 0.000000000000000000, 1.000000000000000000 ) ) ;
#58 = CARTESIAN_POINT ( 'NONE',  ( -3.700000000000000178, 4.531193156845206201E-16, 5.199999999999982414 ) ) ;
#59 = LINE ( 'NONE', #108, #107 ) ;
#60 = DIRECTION ( 'NONE',  ( -0.000000000000000000, -0.000000000000000000, -1.000000000000000000 ) ) ;
#61 = ORIENTED_EDGE ( 'NONE', *, *, #257, .F. ) ;
#62 = PERSON_AND_ORGANIZATION_ROLE ( 'classification_officer' ) ;
#63 = ORIENTED_EDGE ( 'NONE', *, *, #285, .T. ) ;
#64 = APPLICATION_CONTEXT ( 'configuration controlled 3d designs of mechanical parts and assemblies' ) ;
#65 = PERSON_AND_ORGANIZATION ( #149, #276 ) ;
#66 = AXIS2_PLACEMENT_3D ( 'NONE', #124, #60, #239 ) ;
#67 = APPLICATION_PROTOCOL_DEFINITION ( 'international standard', 'config_control_design', 1994, #64 ) ;
#68 = ORIENTED_EDGE ( 'NONE', *, *, #39, .F. ) ;
#69 = VERTEX_POINT ( 'NONE', #237 ) ;
#70 = PERSON_AND_ORGANIZATION ( #149, #276 ) ;
#71 = CARTESIAN_POINT ( 'NONE',  ( 0.000000000000000000, 0.000000000000000000, 505.0000000000000000 ) ) ;
#72 = EDGE_CURVE ( 'NONE', #69, #307, #89, .T. ) ;
#73 = ORIENTED_EDGE ( 'NONE', *, *, #272, .T. ) ;
#74 = CIRCLE ( 'NONE', #93, 6.000000000000000888 ) ;
#75 = VERTEX_POINT ( 'NONE', #236 ) ;
#76 = CARTESIAN_POINT ( 'NONE',  ( 6.000000000000000888, 7.347880794884120722E-16, 5.000000000000000000 ) ) ;
#77 = DIRECTION ( 'NONE',  ( 1.000000000000000000, 0.000000000000000000, 0.000000000000000000 ) ) ;
#78 = CARTESIAN_POINT ( 'NONE',  ( 0.000000000000000000, 0.000000000000000000, 5.000000000000000000 ) ) ;
#79 = AXIS2_PLACEMENT_3D ( 'NONE', #144, #191, #26 ) ;
#80 = DIRECTION ( 'NONE',  ( 0.000000000000000000, 0.000000000000000000, 1.000000000000000000 ) ) ;
#81 = DIRECTION ( 'NONE',  ( 1.000000000000000000, 0.000000000000000000, 0.000000000000000000 ) ) ;
#82 = AXIS2_PLACEMENT_3D ( 'NONE', #78, #169, #243 ) ;
#83 = DIRECTION ( 'NONE',  ( -0.000000000000000000, -0.000000000000000000, -1.000000000000000000 ) ) ;
#84 = APPROVAL_ROLE ( '' ) ;
#85 = CARTESIAN_POINT ( 'NONE',  ( -3.700000000000000178, 4.531193156845206201E-16, 4.999999999999991118 ) ) ;
#86 = ORIENTED_EDGE ( 'NONE', *, *, #272, .F. ) ;
#87 = PERSON_AND_ORGANIZATION_ROLE ( 'creator' ) ;
#88 = CARTESIAN_POINT ( 'NONE',  ( 0.000000000000000000, 0.000000000000000000, 0.000000000000000000 ) ) ;
#89 = CIRCLE ( 'NONE', #293, 3.700000000000000178 ) ;
#90 = PERSON_AND_ORGANIZATION ( #149, #276 ) ;
#91 = VERTEX_POINT ( 'NONE', #123 ) ;
#92 = ORIENTED_EDGE ( 'NONE', *, *, #257, .T. ) ;
#93 = AXIS2_PLACEMENT_3D ( 'NONE', #171, #270, #34 ) ;
#94 = ORIENTED_EDGE ( 'NONE', *, *, #72, .T. ) ;
#95 = APPROVAL ( #100, 'NEURÈENÝ' ) ;
#96 = CLOSED_SHELL ( 'NONE', ( #245, #27, #238, #252, #35, #4, #184, #117, #268 ) ) ;
#97 = CARTESIAN_POINT ( 'NONE',  ( 0.000000000000000000, 0.000000000000000000, 5.000000000000000000 ) ) ;
#98 = ORIENTED_EDGE ( 'NONE', *, *, #176, .F. ) ;
#99 = LOCAL_TIME ( 14, 36, 37.00000000000000000, #157 ) ;
#100 = APPROVAL_STATUS ( 'not_yet_approved' ) ;
#101 = DIRECTION ( 'NONE',  ( -0.000000000000000000, -0.000000000000000000, -1.000000000000000000 ) ) ;
#102 = CARTESIAN_POINT ( 'NONE',  ( -6.000000000000000888, 0.000000000000000000, 5.000000000000000000 ) ) ;
#103 = FACE_OUTER_BOUND ( 'NONE', #116, .T. ) ;
#104 = AXIS2_PLACEMENT_3D ( 'NONE', #88, #181, #200 ) ;
#105 = CARTESIAN_POINT ( 'NONE',  ( 0.000000000000000000, 0.000000000000000000, 505.0000000000000000 ) ) ;
#106 = CC_DESIGN_DATE_AND_TIME_ASSIGNMENT ( #14, #227, ( #228 ) ) ;
#107 = VECTOR ( 'NONE', #147, 1000.000000000000000 ) ;
#108 = CARTESIAN_POINT ( 'NONE',  ( 3.500000000000000000, 4.286263797015736595E-16, 505.0000000000000000 ) ) ;
#109 = CARTESIAN_POINT ( 'NONE',  ( 0.000000000000000000, 0.000000000000000000, 5.199999999999982414 ) ) ;
#110 = PERSON_AND_ORGANIZATION ( #149, #276 ) ;
#111 = CC_DESIGN_PERSON_AND_ORGANIZATION_ASSIGNMENT ( #297, #62, ( #5 ) ) ;
#112 = PERSON_AND_ORGANIZATION_ROLE ( 'creator' ) ;
#113 = DATE_AND_TIME ( #174, #99 ) ;
#114 = VERTEX_POINT ( 'NONE', #76 ) ;
#115 = CALENDAR_DATE ( 2022, 7, 7 ) ;
#116 = EDGE_LOOP ( 'NONE', ( #86, #61, #138, #183 ) ) ;
#117 = ADVANCED_FACE ( 'NONE', ( #280 ), #160, .T. ) ;
#118 = DIRECTION ( 'NONE',  ( 1.000000000000000000, 0.000000000000000000, 0.000000000000000000 ) ) ;
#119 = PLANE ( 'NONE',  #41 ) ;
#120 = FACE_BOUND ( 'NONE', #189, .T. ) ;
#121 = APPROVAL_DATE_TIME ( #208, #95 ) ;
#122 = CYLINDRICAL_SURFACE ( 'NONE', #211, 3.500000000000000000 ) ;
#123 = CARTESIAN_POINT ( 'NONE',  ( -3.500000000000000000, 0.000000000000000000, 5.199999999999982414 ) ) ;
#124 = CARTESIAN_POINT ( 'NONE',  ( 0.000000000000000000, 0.000000000000000000, 5.000000000000000000 ) ) ;
#125 = EDGE_CURVE ( 'NONE', #303, #159, #24, .T. ) ;
#126 = CARTESIAN_POINT ( 'NONE',  ( 0.000000000000000000, 0.000000000000000000, 5.000000000000000000 ) ) ;
#127 = LOCAL_TIME ( 14, 36, 37.00000000000000000, #19 ) ;
#128 = DIRECTION ( 'NONE',  ( -1.000000000000000000, 1.224646799147350742E-16, 0.000000000000000000 ) ) ;
#129 = DIRECTION ( 'NONE',  ( 0.000000000000000000, 0.000000000000000000, 1.000000000000000000 ) ) ;
#130 = CARTESIAN_POINT ( 'NONE',  ( -6.000000000000000888, 0.000000000000000000, 5.000000000000000000 ) ) ;
#131 = VECTOR ( 'NONE', #269, 1000.000000000000000 ) ;
#132 = APPROVAL_DATE_TIME ( #206, #151 ) ;
#133 = ORIENTED_EDGE ( 'NONE', *, *, #290, .T. ) ;
#134 = MANIFOLD_SOLID_BREP ( 'Zaoblit1', #96 ) ;
#135 = MECHANICAL_CONTEXT ( 'NONE', #274, 'mechanical' ) ;
#136 = ORIENTED_EDGE ( 'NONE', *, *, #281, .T. ) ;
#137 = AXIS2_PLACEMENT_3D ( 'NONE', #244, #80, #11 ) ;
#138 = ORIENTED_EDGE ( 'NONE', *, *, #176, .T. ) ;
#139 = EDGE_LOOP ( 'NONE', ( #275, #133 ) ) ;
#140 = APPROVAL_PERSON_ORGANIZATION ( #44, #264, #84 ) ;
#141 = ORIENTED_EDGE ( 'NONE', *, *, #72, .F. ) ;
#142 = CARTESIAN_POINT ( 'NONE',  ( -3.500000000000000000, 0.000000000000000000, 505.0000000000000000 ) ) ;
#143 = EDGE_CURVE ( 'NONE', #307, #69, #196, .T. ) ;
#144 = CARTESIAN_POINT ( 'NONE',  ( 0.000000000000000000, 0.000000000000000000, 0.000000000000000000 ) ) ;
#145 = LOCAL_TIME ( 14, 36, 37.00000000000000000, #247 ) ;
#146 = CARTESIAN_POINT ( 'NONE',  ( -6.000000000000000888, 0.000000000000000000, 0.000000000000000000 ) ) ;
#147 = DIRECTION ( 'NONE',  ( -0.000000000000000000, -0.000000000000000000, -1.000000000000000000 ) ) ;
#148 = DIRECTION ( 'NONE',  ( 1.000000000000000000, 0.000000000000000000, 0.000000000000000000 ) ) ;
#149 = PERSON ( 'NEURÈENÝ', 'NEURÈENÝ', 'NEURÈENÝ', ('NEURÈENÝ'), ('NEURÈENÝ'), ('NEURÈENÝ') ) ;
#150 = CYLINDRICAL_SURFACE ( 'NONE', #13, 3.500000000000000000 ) ;
#151 = APPROVAL ( #37, 'NEURÈENÝ' ) ;
#152 = CIRCLE ( 'NONE', #177, 0.2000000000000000944 ) ;
#153 = EDGE_CURVE ( 'NONE', #159, #75, #59, .T. ) ;
#154 = AXIS2_PLACEMENT_3D ( 'NONE', #71, #161, #265 ) ;
#155 = DATE_AND_TIME ( #40, #145 ) ;
#156 = CC_DESIGN_SECURITY_CLASSIFICATION ( #5, ( #226 ) ) ;
#157 = COORDINATED_UNIVERSAL_TIME_OFFSET ( 1, 0, .AHEAD. ) ;
#158 = TOROIDAL_SURFACE ( 'NONE', #38, 3.700000000000000178, 0.2000000000000000111 ) ;
#159 = VERTEX_POINT ( 'NONE', #10 ) ;
#160 = PLANE ( 'NONE',  #154 ) ;
#161 = DIRECTION ( 'NONE',  ( 0.000000000000000000, 0.000000000000000000, 1.000000000000000000 ) ) ;
#162 = ORIENTED_EDGE ( 'NONE', *, *, #281, .F. ) ;
#163 = CALENDAR_DATE ( 2022, 7, 7 ) ;
#164 = DIRECTION ( 'NONE',  ( 0.000000000000000000, 0.000000000000000000, 1.000000000000000000 ) ) ;
#165 = AXIS2_PLACEMENT_3D ( 'NONE', #2, #232, #118 ) ;
#166 = ORIENTED_EDGE ( 'NONE', *, *, #285, .F. ) ;
#167 = CARTESIAN_POINT ( 'NONE',  ( 0.000000000000000000, 0.000000000000000000, 5.199999999999982414 ) ) ;
#168 = AXIS2_PLACEMENT_3D ( 'NONE', #109, #57, #81 ) ;
#169 = DIRECTION ( 'NONE',  ( 0.000000000000000000, 0.000000000000000000, 1.000000000000000000 ) ) ;
#170 = LINE ( 'NONE', #241, #131 ) ;
#171 = CARTESIAN_POINT ( 'NONE',  ( 0.000000000000000000, 0.000000000000000000, 5.000000000000000000 ) ) ;
#172 = DIRECTION ( 'NONE',  ( 0.000000000000000000, -1.000000000000000000, 0.000000000000000000 ) ) ;
#173 = DIRECTION ( 'NONE',  ( 1.000000000000000000, 0.000000000000000000, 0.000000000000000000 ) ) ;
#174 = CALENDAR_DATE ( 2022, 7, 7 ) ;
#175 = EDGE_LOOP ( 'NONE', ( #18, #202, #141, #166 ) ) ;
#176 = EDGE_CURVE ( 'NONE', #28, #204, #218, .T. ) ;
#177 = AXIS2_PLACEMENT_3D ( 'NONE', #58, #33, #128 ) ;
#178 = CALENDAR_DATE ( 2022, 7, 7 ) ;
#179 = APPROVAL_PERSON_ORGANIZATION ( #70, #95, #235 ) ;
#180 = CIRCLE ( 'NONE', #79, 6.000000000000000888 ) ;
#181 = DIRECTION ( 'NONE',  ( 0.000000000000000000, 0.000000000000000000, 1.000000000000000000 ) ) ;
#182 =( NAMED_UNIT ( * ) PLANE_ANGLE_UNIT ( ) SI_UNIT ( $, .RADIAN. ) );
#183 = ORIENTED_EDGE ( 'NONE', *, *, #39, .T. ) ;
#184 = ADVANCED_FACE ( 'NONE', ( #198 ), #150, .T. ) ;
#185 = AXIS2_PLACEMENT_3D ( 'NONE', #126, #288, #36 ) ;
#186 = EDGE_LOOP ( 'NONE', ( #22, #298, #263, #248 ) ) ;
#187 = COORDINATED_UNIVERSAL_TIME_OFFSET ( 1, 0, .AHEAD. ) ;
#188 = PLANE ( 'NONE',  #267 ) ;
#189 = EDGE_LOOP ( 'NONE', ( #94, #283 ) ) ;
#190 = AXIS2_PLACEMENT_3D ( 'NONE', #219, #195, #55 ) ;
#191 = DIRECTION ( 'NONE',  ( 0.000000000000000000, 0.000000000000000000, 1.000000000000000000 ) ) ;
#192 = DIRECTION ( 'NONE',  ( 0.000000000000000000, 0.000000000000000000, -1.000000000000000000 ) ) ;
#193 = CYLINDRICAL_SURFACE ( 'NONE', #185, 6.000000000000000888 ) ;
#194 = TOROIDAL_SURFACE ( 'NONE', #168, 3.700000000000000178, 0.2000000000000000111 ) ;
#195 = DIRECTION ( 'NONE',  ( -0.000000000000000000, -0.000000000000000000, -1.000000000000000000 ) ) ;
#196 = CIRCLE ( 'NONE', #66, 3.700000000000000178 ) ;
#197 = FACE_OUTER_BOUND ( 'NONE', #253, .T. ) ;
#198 = FACE_OUTER_BOUND ( 'NONE', #186, .T. ) ;
#199 = AXIS2_PLACEMENT_3D ( 'NONE', #223, #172, #192 ) ;
#200 = DIRECTION ( 'NONE',  ( 1.000000000000000000, 0.000000000000000000, 0.000000000000000000 ) ) ;
#201 = SECURITY_CLASSIFICATION_LEVEL ( 'unclassified' ) ;
#202 = ORIENTED_EDGE ( 'NONE', *, *, #278, .T. ) ;
#203 = DIRECTION ( 'NONE',  ( 0.000000000000000000, 0.000000000000000000, 1.000000000000000000 ) ) ;
#204 = VERTEX_POINT ( 'NONE', #146 ) ;
#205 = ORIENTED_EDGE ( 'NONE', *, *, #295, .T. ) ;
#206 = DATE_AND_TIME ( #115, #127 ) ;
#207 = CC_DESIGN_PERSON_AND_ORGANIZATION_ASSIGNMENT ( #304, #112, ( #226 ) ) ;
#208 = DATE_AND_TIME ( #163, #52 ) ;
#209 = AXIS2_PLACEMENT_3D ( 'NONE', #271, #287, #77 ) ;
#210 = CARTESIAN_POINT ( 'NONE',  ( 0.000000000000000000, 0.000000000000000000, 0.000000000000000000 ) ) ;
#211 = AXIS2_PLACEMENT_3D ( 'NONE', #284, #262, #53 ) ;
#212 = LINE ( 'NONE', #142, #249 ) ;
#213 = EDGE_CURVE ( 'NONE', #16, #204, #29, .T. ) ;
#214 = DIRECTION ( 'NONE',  ( 0.000000000000000000, 0.000000000000000000, 1.000000000000000000 ) ) ;
#215 = EDGE_LOOP ( 'NONE', ( #68, #7 ) ) ;
#216 = CC_DESIGN_PERSON_AND_ORGANIZATION_ASSIGNMENT ( #110, #296, ( #25 ) ) ;
#217 = DIRECTION ( 'NONE',  ( -0.000000000000000000, -0.000000000000000000, -1.000000000000000000 ) ) ;
#218 = LINE ( 'NONE', #130, #277 ) ;
#219 = CARTESIAN_POINT ( 'NONE',  ( 0.000000000000000000, 0.000000000000000000, 5.000000000000000000 ) ) ;
#220 = FACE_OUTER_BOUND ( 'NONE', #255, .T. ) ;
#221 = ADVANCED_BREP_SHAPE_REPRESENTATION ( '0abd', ( #134, #104 ), #231 ) ;
#222 = CC_DESIGN_APPROVAL ( #95, ( #5 ) ) ;
#223 = CARTESIAN_POINT ( 'NONE',  ( 3.700000000000000178, 0.000000000000000000, 5.199999999999982414 ) ) ;
#224 = CARTESIAN_POINT ( 'NONE',  ( -3.500000000000000000, 0.000000000000000000, 505.0000000000000000 ) ) ;
#225 = APPLICATION_PROTOCOL_DEFINITION ( 'international standard', 'config_control_design', 1994, #274 ) ;
#226 = PRODUCT_DEFINITION_FORMATION_WITH_SPECIFIED_SOURCE ( 'LIBOVOLNÝ', '', #25, .NOT_KNOWN. ) ;
#227 = DATE_TIME_ROLE ( 'creation_date' ) ;
#228 = PRODUCT_DEFINITION ( 'NEZNÁMÝ', '', #226, #234 ) ;
#229 = EDGE_LOOP ( 'NONE', ( #92, #136 ) ) ;
#230 = DIRECTION ( 'NONE',  ( 1.000000000000000000, 0.000000000000000000, -0.000000000000000000 ) ) ;
#231 =( GEOMETRIC_REPRESENTATION_CONTEXT ( 3 ) GLOBAL_UNCERTAINTY_ASSIGNED_CONTEXT ( ( #291 ) ) GLOBAL_UNIT_ASSIGNED_CONTEXT ( ( #299, #182, #15 ) ) REPRESENTATION_CONTEXT ( 'NONE', 'WORKASPACE' ) );
#232 = DIRECTION ( 'NONE',  ( 0.000000000000000000, 0.000000000000000000, 1.000000000000000000 ) ) ;
#233 = CARTESIAN_POINT ( 'NONE',  ( 0.000000000000000000, 0.000000000000000000, 5.000000000000000000 ) ) ;
#234 = DESIGN_CONTEXT ( 'detailed design', #64, 'design' ) ;
#235 = APPROVAL_ROLE ( '' ) ;
#236 = CARTESIAN_POINT ( 'NONE',  ( 3.500000000000000000, 4.286263797015736595E-16, 5.199999999999982414 ) ) ;
#237 = CARTESIAN_POINT ( 'NONE',  ( 3.700000000000000178, 0.000000000000000000, 4.999999999999991118 ) ) ;
#238 = ADVANCED_FACE ( 'NONE', ( #197 ), #294, .T. ) ;
#239 = DIRECTION ( 'NONE',  ( 1.000000000000000000, 0.000000000000000000, 0.000000000000000000 ) ) ;
#240 = PRODUCT_RELATED_PRODUCT_CATEGORY ( 'detail', '', ( #25 ) ) ;
#241 = CARTESIAN_POINT ( 'NONE',  ( 6.000000000000000888, 7.347880794884120722E-16, 5.000000000000000000 ) ) ;
#242 = CIRCLE ( 'NONE', #209, 3.500000000000000000 ) ;
#243 = DIRECTION ( 'NONE',  ( 1.000000000000000000, 0.000000000000000000, 0.000000000000000000 ) ) ;
#244 = CARTESIAN_POINT ( 'NONE',  ( 0.000000000000000000, 0.000000000000000000, 0.000000000000000000 ) ) ;
#245 = ADVANCED_FACE ( 'NONE', ( #292 ), #158, .F. ) ;
#246 = AXIS2_PLACEMENT_3D ( 'NONE', #167, #203, #173 ) ;
#247 = COORDINATED_UNIVERSAL_TIME_OFFSET ( 1, 0, .AHEAD. ) ;
#248 = ORIENTED_EDGE ( 'NONE', *, *, #21, .T. ) ;
#249 = VECTOR ( 'NONE', #101, 1000.000000000000000 ) ;
#250 = COORDINATED_UNIVERSAL_TIME_OFFSET ( 1, 0, .AHEAD. ) ;
#251 = APPROVAL_DATE_TIME ( #113, #264 ) ;
#252 = ADVANCED_FACE ( 'NONE', ( #103 ), #193, .T. ) ;
#253 = EDGE_LOOP ( 'NONE', ( #162, #73, #23, #98 ) ) ;
#254 = CIRCLE ( 'NONE', #199, 0.1999999999999996503 ) ;
#255 = EDGE_LOOP ( 'NONE', ( #30, #20, #63, #260 ) ) ;
#256 = ORIENTED_EDGE ( 'NONE', *, *, #45, .F. ) ;
#257 = EDGE_CURVE ( 'NONE', #28, #114, #289, .T. ) ;
#258 = DIRECTION ( 'NONE',  ( 1.000000000000000000, 0.000000000000000000, 0.000000000000000000 ) ) ;
#259 = APPROVAL_PERSON_ORGANIZATION ( #65, #151, #273 ) ;
#260 = ORIENTED_EDGE ( 'NONE', *, *, #143, .F. ) ;
#261 = AXIS2_PLACEMENT_3D ( 'NONE', #12, #129, #148 ) ;
#262 = DIRECTION ( 'NONE',  ( -0.000000000000000000, -0.000000000000000000, -1.000000000000000000 ) ) ;
#263 = ORIENTED_EDGE ( 'NONE', *, *, #45, .T. ) ;
#264 = APPROVAL ( #17, 'NEURÈENÝ' ) ;
#265 = DIRECTION ( 'NONE',  ( 1.000000000000000000, 0.000000000000000000, -0.000000000000000000 ) ) ;
#266 = DIRECTION ( 'NONE',  ( 1.000000000000000000, 0.000000000000000000, 0.000000000000000000 ) ) ;
#267 = AXIS2_PLACEMENT_3D ( 'NONE', #210, #164, #230 ) ;
#268 = ADVANCED_FACE ( 'NONE', ( #220 ), #194, .F. ) ;
#269 = DIRECTION ( 'NONE',  ( -0.000000000000000000, -0.000000000000000000, -1.000000000000000000 ) ) ;
#270 = DIRECTION ( 'NONE',  ( 0.000000000000000000, 0.000000000000000000, 1.000000000000000000 ) ) ;
#271 = CARTESIAN_POINT ( 'NONE',  ( 0.000000000000000000, 0.000000000000000000, 505.0000000000000000 ) ) ;
#272 = EDGE_CURVE ( 'NONE', #114, #16, #170, .T. ) ;
#273 = APPROVAL_ROLE ( '' ) ;
#274 = APPLICATION_CONTEXT ( 'configuration controlled 3d designs of mechanical parts and assemblies' ) ;
#275 = ORIENTED_EDGE ( 'NONE', *, *, #125, .T. ) ;
#276 = ORGANIZATION ( 'NEURÈENÝ', 'NEURÈENÝ', '' ) ;
#277 = VECTOR ( 'NONE', #83, 1000.000000000000000 ) ;
#278 = EDGE_CURVE ( 'NONE', #91, #307, #152, .T. ) ;
#279 = PERSON_AND_ORGANIZATION_ROLE ( 'design_supplier' ) ;
#280 = FACE_OUTER_BOUND ( 'NONE', #139, .T. ) ;
#281 = EDGE_CURVE ( 'NONE', #114, #28, #74, .T. ) ;
#282 = FACE_OUTER_BOUND ( 'NONE', #229, .T. ) ;
#283 = ORIENTED_EDGE ( 'NONE', *, *, #143, .T. ) ;
#284 = CARTESIAN_POINT ( 'NONE',  ( 0.000000000000000000, 0.000000000000000000, 505.0000000000000000 ) ) ;
#285 = EDGE_CURVE ( 'NONE', #75, #69, #254, .T. ) ;
#286 = DIRECTION ( 'NONE',  ( -0.000000000000000000, -0.000000000000000000, -1.000000000000000000 ) ) ;
#287 = DIRECTION ( 'NONE',  ( 0.000000000000000000, 0.000000000000000000, 1.000000000000000000 ) ) ;
#288 = DIRECTION ( 'NONE',  ( -0.000000000000000000, -0.000000000000000000, -1.000000000000000000 ) ) ;
#289 = CIRCLE ( 'NONE', #82, 6.000000000000000888 ) ;
#290 = EDGE_CURVE ( 'NONE', #159, #303, #242, .T. ) ;
#291 = UNCERTAINTY_MEASURE_WITH_UNIT (LENGTH_MEASURE( 1.000000000000000082E-05 ), #299, 'distance_accuracy_value', 'NONE');
#292 = FACE_OUTER_BOUND ( 'NONE', #175, .T. ) ;
#293 = AXIS2_PLACEMENT_3D ( 'NONE', #97, #286, #258 ) ;
#294 = CYLINDRICAL_SURFACE ( 'NONE', #190, 6.000000000000000888 ) ;
#295 = EDGE_CURVE ( 'NONE', #75, #91, #306, .T. ) ;
#296 = PERSON_AND_ORGANIZATION_ROLE ( 'design_owner' ) ;
#297 = PERSON_AND_ORGANIZATION ( #149, #276 ) ;
#298 = ORIENTED_EDGE ( 'NONE', *, *, #125, .F. ) ;
#299 =( LENGTH_UNIT ( ) NAMED_UNIT ( * ) SI_UNIT ( .MILLI., .METRE. ) );
#300 = ORIENTED_EDGE ( 'NONE', *, *, #290, .F. ) ;
#301 = CC_DESIGN_DATE_AND_TIME_ASSIGNMENT ( #155, #42, ( #5 ) ) ;
#302 = LOCAL_TIME ( 14, 36, 37.00000000000000000, #250 ) ;
#303 = VERTEX_POINT ( 'NONE', #224 ) ;
#304 = PERSON_AND_ORGANIZATION ( #149, #276 ) ;
#305 = PRODUCT_DEFINITION_SHAPE ( 'NONE', 'NONE',  #228 ) ;
#306 = CIRCLE ( 'NONE', #246, 3.500000000000000000 ) ;
#307 = VERTEX_POINT ( 'NONE', #85 ) ;
ENDSEC;
END-ISO-10303-21;
