ISO-10303-21;
HEADER;
FILE_DESCRIPTION (( 'STEP AP203' ),
    '1' );
FILE_NAME ('f7a1.STEP',
    '2022-07-07T12:23:17',
    ( '' ),
    ( '' ),
    'SwSTEP 2.0',
    'SolidWorks 2019',
    '' );
FILE_SCHEMA (( 'CONFIG_CONTROL_DESIGN' ));
ENDSEC;

DATA;
#1 = DATE_AND_TIME ( #192, #210 ) ;
#2 = AXIS2_PLACEMENT_3D ( 'NONE', #174, #214, #233 ) ;
#3 = DIRECTION ( 'NONE',  ( -1.000000000000000000, 1.224646799147353454E-16, 0.000000000000000000 ) ) ;
#4 = DIRECTION ( 'NONE',  ( 1.000000000000000000, 0.000000000000000000, -0.000000000000000000 ) ) ;
#5 = DIRECTION ( 'NONE',  ( -1.000000000000000000, 0.000000000000000000, 0.000000000000000000 ) ) ;
#6 = CARTESIAN_POINT ( 'NONE',  ( -6.200000000000001066, 7.592810154713590821E-16, 6.999999999999992006 ) ) ;
#7 = CIRCLE ( 'NONE', #90, 9.000000000000000000 ) ;
#8 = AXIS2_PLACEMENT_3D ( 'NONE', #181, #59, #106 ) ;
#9 = CARTESIAN_POINT ( 'NONE',  ( 0.000000000000000000, 0.000000000000000000, 0.000000000000000000 ) ) ;
#10 = EDGE_CURVE ( 'NONE', #211, #165, #198, .T. ) ;
#11 = DIRECTION ( 'NONE',  ( -0.000000000000000000, -0.000000000000000000, -1.000000000000000000 ) ) ;
#12 = DIRECTION ( 'NONE',  ( 0.000000000000000000, -1.000000000000000000, 0.000000000000000000 ) ) ;
#13 = COORDINATED_UNIVERSAL_TIME_OFFSET ( 1, 0, .AHEAD. ) ;
#14 = AXIS2_PLACEMENT_3D ( 'NONE', #32, #127, #128 ) ;
#15 = DATE_AND_TIME ( #223, #58 ) ;
#16 = EDGE_CURVE ( 'NONE', #165, #211, #7, .T. ) ;
#17 = VERTEX_POINT ( 'NONE', #209 ) ;
#18 = EDGE_LOOP ( 'NONE', ( #55, #280 ) ) ;
#19 = TOROIDAL_SURFACE ( 'NONE', #155, 6.200000000000001066, 0.2000000000000000111 ) ;
#20 = EDGE_CURVE ( 'NONE', #286, #274, #206, .T. ) ;
#21 = LOCAL_TIME ( 14, 23, 17.00000000000000000, #254 ) ;
#22 = PERSON_AND_ORGANIZATION ( #79, #72 ) ;
#23 = ORIENTED_EDGE ( 'NONE', *, *, #288, .T. ) ;
#24 = ADVANCED_BREP_SHAPE_REPRESENTATION ( 'f7a1', ( #137, #200 ), #249 ) ;
#25 = EDGE_LOOP ( 'NONE', ( #175, #281, #253, #260 ) ) ;
#26 = ORIENTED_EDGE ( 'NONE', *, *, #96, .T. ) ;
#27 = SHAPE_DEFINITION_REPRESENTATION ( #270, #24 ) ;
#28 = CARTESIAN_POINT ( 'NONE',  ( 0.000000000000000000, 0.000000000000000000, 7.000000000000000000 ) ) ;
#29 = ORIENTED_EDGE ( 'NONE', *, *, #130, .F. ) ;
#30 = ADVANCED_FACE ( 'NONE', ( #305 ), #170, .T. ) ;
#31 = CARTESIAN_POINT ( 'NONE',  ( 9.000000000000000000, 1.102182119232617714E-15, 7.000000000000000000 ) ) ;
#32 = CARTESIAN_POINT ( 'NONE',  ( 0.000000000000000000, 0.000000000000000000, 7.000000000000000000 ) ) ;
#33 = FACE_OUTER_BOUND ( 'NONE', #95, .T. ) ;
#34 = CC_DESIGN_PERSON_AND_ORGANIZATION_ASSIGNMENT ( #71, #168, ( #51 ) ) ;
#35 = DIRECTION ( 'NONE',  ( -0.000000000000000000, -0.000000000000000000, -1.000000000000000000 ) ) ;
#36 = AXIS2_PLACEMENT_3D ( 'NONE', #293, #11, #178 ) ;
#37 = PLANE ( 'NONE',  #290 ) ;
#38 = DIRECTION ( 'NONE',  ( -0.000000000000000000, -0.000000000000000000, -1.000000000000000000 ) ) ;
#39 = EDGE_CURVE ( 'NONE', #211, #272, #172, .T. ) ;
#40 = PERSON_AND_ORGANIZATION_ROLE ( 'classification_officer' ) ;
#41 = CIRCLE ( 'NONE', #222, 9.000000000000000000 ) ;
#42 = DATE_TIME_ROLE ( 'classification_date' ) ;
#43 = EDGE_LOOP ( 'NONE', ( #69, #66, #52, #183 ) ) ;
#44 =( NAMED_UNIT ( * ) PLANE_ANGLE_UNIT ( ) SI_UNIT ( $, .RADIAN. ) );
#45 = CC_DESIGN_DATE_AND_TIME_ASSIGNMENT ( #15, #42, ( #273 ) ) ;
#46 = CALENDAR_DATE ( 2022, 7, 7 ) ;
#47 = DESIGN_CONTEXT ( 'detailed design', #241, 'design' ) ;
#48 = CARTESIAN_POINT ( 'NONE',  ( -6.200000000000001066, 7.592810154713590821E-16, 7.199999999999984190 ) ) ;
#49 = CC_DESIGN_PERSON_AND_ORGANIZATION_ASSIGNMENT ( #64, #87, ( #251 ) ) ;
#50 = VERTEX_POINT ( 'NONE', #257 ) ;
#51 = PRODUCT_DEFINITION_FORMATION_WITH_SPECIFIED_SOURCE ( 'LIBOVOLNÝ', '', #251, .NOT_KNOWN. ) ;
#52 = ORIENTED_EDGE ( 'NONE', *, *, #20, .T. ) ;
#53 = EDGE_LOOP ( 'NONE', ( #256, #125, #23, #185 ) ) ;
#54 = EDGE_CURVE ( 'NONE', #274, #207, #179, .T. ) ;
#55 = ORIENTED_EDGE ( 'NONE', *, *, #16, .T. ) ;
#56 = CIRCLE ( 'NONE', #67, 6.000000000000000888 ) ;
#57 = DIRECTION ( 'NONE',  ( 1.000000000000000000, 0.000000000000000000, 0.000000000000000000 ) ) ;
#58 = LOCAL_TIME ( 14, 23, 17.00000000000000000, #13 ) ;
#59 = DIRECTION ( 'NONE',  ( 0.000000000000000000, 0.000000000000000000, 1.000000000000000000 ) ) ;
#60 = DIRECTION ( 'NONE',  ( 1.000000000000000000, 0.000000000000000000, 0.000000000000000000 ) ) ;
#61 = CARTESIAN_POINT ( 'NONE',  ( 0.000000000000000000, 0.000000000000000000, 0.000000000000000000 ) ) ;
#62 = VECTOR ( 'NONE', #35, 1000.000000000000000 ) ;
#63 = FACE_OUTER_BOUND ( 'NONE', #53, .T. ) ;
#64 = PERSON_AND_ORGANIZATION ( #79, #72 ) ;
#65 =( LENGTH_UNIT ( ) NAMED_UNIT ( * ) SI_UNIT ( .MILLI., .METRE. ) );
#66 = ORIENTED_EDGE ( 'NONE', *, *, #282, .T. ) ;
#67 = AXIS2_PLACEMENT_3D ( 'NONE', #197, #84, #294 ) ;
#68 = LOCAL_TIME ( 14, 23, 17.00000000000000000, #94 ) ;
#69 = ORIENTED_EDGE ( 'NONE', *, *, #177, .F. ) ;
#70 = APPROVAL_DATE_TIME ( #275, #303 ) ;
#71 = PERSON_AND_ORGANIZATION ( #79, #72 ) ;
#72 = ORGANIZATION ( 'NEURÈENÝ', 'NEURÈENÝ', '' ) ;
#73 = DIRECTION ( 'NONE',  ( 0.000000000000000000, 0.000000000000000000, 1.000000000000000000 ) ) ;
#74 = CARTESIAN_POINT ( 'NONE',  ( 0.000000000000000000, 0.000000000000000000, 7.199999999999984190 ) ) ;
#75 = ORIENTED_EDGE ( 'NONE', *, *, #101, .T. ) ;
#76 = ADVANCED_FACE ( 'NONE', ( #142 ), #126, .T. ) ;
#77 = EDGE_LOOP ( 'NONE', ( #75, #262 ) ) ;
#78 = DIRECTION ( 'NONE',  ( 0.000000000000000000, 0.000000000000000000, 1.000000000000000000 ) ) ;
#79 = PERSON ( 'NEURÈENÝ', 'NEURÈENÝ', 'NEURÈENÝ', ('NEURÈENÝ'), ('NEURÈENÝ'), ('NEURÈENÝ') ) ;
#80 = APPROVAL_PERSON_ORGANIZATION ( #296, #278, #135 ) ;
#81 = CARTESIAN_POINT ( 'NONE',  ( -6.000000000000000888, 0.000000000000000000, 7.199999999999984190 ) ) ;
#82 = APPROVAL ( #182, 'NEURÈENÝ' ) ;
#83 = LINE ( 'NONE', #154, #62 ) ;
#84 = DIRECTION ( 'NONE',  ( 0.000000000000000000, 0.000000000000000000, 1.000000000000000000 ) ) ;
#85 = VECTOR ( 'NONE', #86, 1000.000000000000000 ) ;
#86 = DIRECTION ( 'NONE',  ( -0.000000000000000000, -0.000000000000000000, -1.000000000000000000 ) ) ;
#87 = PERSON_AND_ORGANIZATION_ROLE ( 'design_owner' ) ;
#88 = ORIENTED_EDGE ( 'NONE', *, *, #292, .T. ) ;
#89 = APPROVAL_STATUS ( 'not_yet_approved' ) ;
#90 = AXIS2_PLACEMENT_3D ( 'NONE', #28, #78, #121 ) ;
#91 = PRODUCT_DEFINITION ( 'NEZNÁMÝ', '', #51, #47 ) ;
#92 = ORIENTED_EDGE ( 'NONE', *, *, #292, .F. ) ;
#93 = COORDINATED_UNIVERSAL_TIME_OFFSET ( 1, 0, .AHEAD. ) ;
#94 = COORDINATED_UNIVERSAL_TIME_OFFSET ( 1, 0, .AHEAD. ) ;
#95 = EDGE_LOOP ( 'NONE', ( #169, #147, #88, #302 ) ) ;
#96 = EDGE_CURVE ( 'NONE', #165, #17, #258, .T. ) ;
#97 = AXIS2_PLACEMENT_3D ( 'NONE', #220, #12, #116 ) ;
#98 = DIRECTION ( 'NONE',  ( 1.000000000000000000, 0.000000000000000000, 0.000000000000000000 ) ) ;
#99 = FACE_OUTER_BOUND ( 'NONE', #18, .T. ) ;
#100 = UNCERTAINTY_MEASURE_WITH_UNIT (LENGTH_MEASURE( 1.000000000000000082E-05 ), #65, 'distance_accuracy_value', 'NONE');
#101 = EDGE_CURVE ( 'NONE', #194, #277, #160, .T. ) ;
#102 = AXIS2_PLACEMENT_3D ( 'NONE', #306, #122, #191 ) ;
#103 = ORIENTED_EDGE ( 'NONE', *, *, #167, .T. ) ;
#104 = FACE_OUTER_BOUND ( 'NONE', #77, .T. ) ;
#105 = DIRECTION ( 'NONE',  ( 1.000000000000000000, 0.000000000000000000, 0.000000000000000000 ) ) ;
#106 = DIRECTION ( 'NONE',  ( 1.000000000000000000, 0.000000000000000000, -0.000000000000000000 ) ) ;
#107 = AXIS2_PLACEMENT_3D ( 'NONE', #261, #235, #98 ) ;
#108 = ADVANCED_FACE ( 'NONE', ( #307, #99 ), #193, .T. ) ;
#109 = CC_DESIGN_APPROVAL ( #303, ( #91 ) ) ;
#110 = CARTESIAN_POINT ( 'NONE',  ( 9.000000000000000000, 1.102182119232617714E-15, 0.000000000000000000 ) ) ;
#111 = LINE ( 'NONE', #247, #85 ) ;
#112 = ADVANCED_FACE ( 'NONE', ( #104 ), #113, .T. ) ;
#113 = PLANE ( 'NONE',  #8 ) ;
#114 =( NAMED_UNIT ( * ) SI_UNIT ( $, .STERADIAN. ) SOLID_ANGLE_UNIT ( ) );
#115 = CIRCLE ( 'NONE', #279, 6.200000000000001066 ) ;
#116 = DIRECTION ( 'NONE',  ( 0.000000000000000000, 0.000000000000000000, -1.000000000000000000 ) ) ;
#117 = ORIENTED_EDGE ( 'NONE', *, *, #16, .F. ) ;
#118 = ORIENTED_EDGE ( 'NONE', *, *, #246, .F. ) ;
#119 = AXIS2_PLACEMENT_3D ( 'NONE', #203, #269, #153 ) ;
#120 = APPROVAL_ROLE ( '' ) ;
#121 = DIRECTION ( 'NONE',  ( 1.000000000000000000, 0.000000000000000000, 0.000000000000000000 ) ) ;
#122 = DIRECTION ( 'NONE',  ( -0.000000000000000000, -0.000000000000000000, -1.000000000000000000 ) ) ;
#123 = EDGE_CURVE ( 'NONE', #194, #274, #111, .T. ) ;
#124 = DIRECTION ( 'NONE',  ( -0.000000000000000000, -0.000000000000000000, -1.000000000000000000 ) ) ;
#125 = ORIENTED_EDGE ( 'NONE', *, *, #39, .T. ) ;
#126 = CYLINDRICAL_SURFACE ( 'NONE', #102, 6.000000000000000888 ) ;
#127 = DIRECTION ( 'NONE',  ( -0.000000000000000000, -0.000000000000000000, -1.000000000000000000 ) ) ;
#128 = DIRECTION ( 'NONE',  ( 1.000000000000000000, 0.000000000000000000, 0.000000000000000000 ) ) ;
#129 = CARTESIAN_POINT ( 'NONE',  ( 0.000000000000000000, 0.000000000000000000, 7.000000000000000000 ) ) ;
#130 = EDGE_CURVE ( 'NONE', #50, #207, #115, .T. ) ;
#131 = DIRECTION ( 'NONE',  ( 1.000000000000000000, 0.000000000000000000, 0.000000000000000000 ) ) ;
#132 = PERSON_AND_ORGANIZATION_ROLE ( 'design_supplier' ) ;
#133 = AXIS2_PLACEMENT_3D ( 'NONE', #202, #38, #5 ) ;
#134 = DATE_AND_TIME ( #188, #68 ) ;
#135 = APPROVAL_ROLE ( '' ) ;
#136 = EDGE_CURVE ( 'NONE', #274, #286, #218, .T. ) ;
#137 = MANIFOLD_SOLID_BREP ( 'Zaoblit1', #159 ) ;
#138 = DIRECTION ( 'NONE',  ( 1.000000000000000000, 0.000000000000000000, 0.000000000000000000 ) ) ;
#139 = PERSON_AND_ORGANIZATION ( #79, #72 ) ;
#140 = CC_DESIGN_APPROVAL ( #82, ( #51 ) ) ;
#141 = CC_DESIGN_PERSON_AND_ORGANIZATION_ASSIGNMENT ( #248, #40, ( #273 ) ) ;
#142 = FACE_OUTER_BOUND ( 'NONE', #25, .T. ) ;
#143 = AXIS2_PLACEMENT_3D ( 'NONE', #189, #148, #145 ) ;
#144 = ADVANCED_FACE ( 'NONE', ( #63 ), #201, .T. ) ;
#145 = DIRECTION ( 'NONE',  ( 1.000000000000000000, 0.000000000000000000, 0.000000000000000000 ) ) ;
#146 = CC_DESIGN_APPROVAL ( #278, ( #273 ) ) ;
#147 = ORIENTED_EDGE ( 'NONE', *, *, #20, .F. ) ;
#148 = DIRECTION ( 'NONE',  ( 0.000000000000000000, 0.000000000000000000, 1.000000000000000000 ) ) ;
#149 = DIRECTION ( 'NONE',  ( 1.000000000000000000, 0.000000000000000000, 0.000000000000000000 ) ) ;
#150 = CIRCLE ( 'NONE', #14, 6.200000000000001066 ) ;
#151 = ADVANCED_FACE ( 'NONE', ( #33 ), #259, .F. ) ;
#152 = DIRECTION ( 'NONE',  ( 1.000000000000000000, 0.000000000000000000, -0.000000000000000000 ) ) ;
#153 = DIRECTION ( 'NONE',  ( 1.000000000000000000, 0.000000000000000000, 0.000000000000000000 ) ) ;
#154 = CARTESIAN_POINT ( 'NONE',  ( 6.000000000000000888, 7.347880794884120722E-16, 322.0000000000000000 ) ) ;
#155 = AXIS2_PLACEMENT_3D ( 'NONE', #180, #266, #60 ) ;
#156 = DIRECTION ( 'NONE',  ( 0.000000000000000000, 0.000000000000000000, 1.000000000000000000 ) ) ;
#157 = DIRECTION ( 'NONE',  ( 0.000000000000000000, 0.000000000000000000, 1.000000000000000000 ) ) ;
#158 = SECURITY_CLASSIFICATION_LEVEL ( 'unclassified' ) ;
#159 = CLOSED_SHELL ( 'NONE', ( #187, #30, #144, #161, #108, #267, #76, #112, #151 ) ) ;
#160 = CIRCLE ( 'NONE', #107, 6.000000000000000888 ) ;
#161 = ADVANCED_FACE ( 'NONE', ( #289 ), #243, .T. ) ;
#162 = CARTESIAN_POINT ( 'NONE',  ( 0.000000000000000000, 0.000000000000000000, 0.000000000000000000 ) ) ;
#163 = ORIENTED_EDGE ( 'NONE', *, *, #288, .F. ) ;
#164 = APPROVAL_STATUS ( 'not_yet_approved' ) ;
#165 = VERTEX_POINT ( 'NONE', #291 ) ;
#166 = PERSON_AND_ORGANIZATION ( #79, #72 ) ;
#167 = EDGE_CURVE ( 'NONE', #207, #50, #150, .T. ) ;
#168 = PERSON_AND_ORGANIZATION_ROLE ( 'creator' ) ;
#169 = ORIENTED_EDGE ( 'NONE', *, *, #54, .F. ) ;
#170 = CYLINDRICAL_SURFACE ( 'NONE', #2, 6.000000000000000888 ) ;
#171 = DIRECTION ( 'NONE',  ( 1.224646799147353207E-16, 1.000000000000000000, -0.000000000000000000 ) ) ;
#172 = LINE ( 'NONE', #31, #284 ) ;
#173 = APPROVAL_PERSON_ORGANIZATION ( #139, #82, #120 ) ;
#174 = CARTESIAN_POINT ( 'NONE',  ( 0.000000000000000000, 0.000000000000000000, 322.0000000000000000 ) ) ;
#175 = ORIENTED_EDGE ( 'NONE', *, *, #282, .F. ) ;
#176 = CARTESIAN_POINT ( 'NONE',  ( 9.000000000000000000, 1.102182119232617714E-15, 7.000000000000000000 ) ) ;
#177 = EDGE_CURVE ( 'NONE', #277, #194, #56, .T. ) ;
#178 = DIRECTION ( 'NONE',  ( -1.000000000000000000, 0.000000000000000000, 0.000000000000000000 ) ) ;
#179 = CIRCLE ( 'NONE', #213, 0.1999999999999996503 ) ;
#180 = CARTESIAN_POINT ( 'NONE',  ( 0.000000000000000000, 0.000000000000000000, 7.199999999999984190 ) ) ;
#181 = CARTESIAN_POINT ( 'NONE',  ( 0.000000000000000000, 0.000000000000000000, 322.0000000000000000 ) ) ;
#182 = APPROVAL_STATUS ( 'not_yet_approved' ) ;
#183 = ORIENTED_EDGE ( 'NONE', *, *, #123, .F. ) ;
#184 = MECHANICAL_CONTEXT ( 'NONE', #225, 'mechanical' ) ;
#185 = ORIENTED_EDGE ( 'NONE', *, *, #96, .F. ) ;
#186 = CALENDAR_DATE ( 2022, 7, 7 ) ;
#187 = ADVANCED_FACE ( 'NONE', ( #287 ), #19, .F. ) ;
#188 = CALENDAR_DATE ( 2022, 7, 7 ) ;
#189 = CARTESIAN_POINT ( 'NONE',  ( 0.000000000000000000, 0.000000000000000000, 7.000000000000000000 ) ) ;
#190 = APPROVAL_DATE_TIME ( #1, #278 ) ;
#191 = DIRECTION ( 'NONE',  ( -1.000000000000000000, 0.000000000000000000, 0.000000000000000000 ) ) ;
#192 = CALENDAR_DATE ( 2022, 7, 7 ) ;
#193 = PLANE ( 'NONE',  #271 ) ;
#194 = VERTEX_POINT ( 'NONE', #245 ) ;
#195 = CC_DESIGN_PERSON_AND_ORGANIZATION_ASSIGNMENT ( #255, #132, ( #51 ) ) ;
#196 = DIRECTION ( 'NONE',  ( -0.000000000000000000, -0.000000000000000000, -1.000000000000000000 ) ) ;
#197 = CARTESIAN_POINT ( 'NONE',  ( 0.000000000000000000, 0.000000000000000000, 322.0000000000000000 ) ) ;
#198 = CIRCLE ( 'NONE', #143, 9.000000000000000000 ) ;
#199 = FACE_OUTER_BOUND ( 'NONE', #237, .T. ) ;
#200 = AXIS2_PLACEMENT_3D ( 'NONE', #162, #228, #138 ) ;
#201 = CYLINDRICAL_SURFACE ( 'NONE', #133, 9.000000000000000000 ) ;
#202 = CARTESIAN_POINT ( 'NONE',  ( 0.000000000000000000, 0.000000000000000000, 7.000000000000000000 ) ) ;
#203 = CARTESIAN_POINT ( 'NONE',  ( 0.000000000000000000, 0.000000000000000000, 7.199999999999984190 ) ) ;
#204 = DATE_AND_TIME ( #46, #21 ) ;
#205 = ORIENTED_EDGE ( 'NONE', *, *, #130, .T. ) ;
#206 = CIRCLE ( 'NONE', #242, 6.000000000000000888 ) ;
#207 = VERTEX_POINT ( 'NONE', #6 ) ;
#208 = APPLICATION_PROTOCOL_DEFINITION ( 'international standard', 'config_control_design', 1994, #225 ) ;
#209 = CARTESIAN_POINT ( 'NONE',  ( -9.000000000000000000, 0.000000000000000000, 0.000000000000000000 ) ) ;
#210 = LOCAL_TIME ( 14, 23, 17.00000000000000000, #224 ) ;
#211 = VERTEX_POINT ( 'NONE', #176 ) ;
#212 = DIRECTION ( 'NONE',  ( 0.000000000000000000, 0.000000000000000000, 1.000000000000000000 ) ) ;
#213 = AXIS2_PLACEMENT_3D ( 'NONE', #48, #171, #3 ) ;
#214 = DIRECTION ( 'NONE',  ( -0.000000000000000000, -0.000000000000000000, -1.000000000000000000 ) ) ;
#215 = DIRECTION ( 'NONE',  ( -0.000000000000000000, -0.000000000000000000, -1.000000000000000000 ) ) ;
#216 = DIRECTION ( 'NONE',  ( 0.000000000000000000, 0.000000000000000000, 1.000000000000000000 ) ) ;
#217 = CARTESIAN_POINT ( 'NONE',  ( 0.000000000000000000, 0.000000000000000000, 0.000000000000000000 ) ) ;
#218 = CIRCLE ( 'NONE', #119, 6.000000000000000888 ) ;
#219 = CARTESIAN_POINT ( 'NONE',  ( 6.000000000000000888, 7.347880794884120722E-16, 7.199999999999984190 ) ) ;
#220 = CARTESIAN_POINT ( 'NONE',  ( 6.200000000000001066, 0.000000000000000000, 7.199999999999984190 ) ) ;
#221 = CIRCLE ( 'NONE', #232, 9.000000000000000000 ) ;
#222 = AXIS2_PLACEMENT_3D ( 'NONE', #217, #263, #57 ) ;
#223 = CALENDAR_DATE ( 2022, 7, 7 ) ;
#224 = COORDINATED_UNIVERSAL_TIME_OFFSET ( 1, 0, .AHEAD. ) ;
#225 = APPLICATION_CONTEXT ( 'configuration controlled 3d designs of mechanical parts and assemblies' ) ;
#226 = ORIENTED_EDGE ( 'NONE', *, *, #54, .T. ) ;
#227 = CIRCLE ( 'NONE', #97, 0.1999999999999996503 ) ;
#228 = DIRECTION ( 'NONE',  ( 0.000000000000000000, 0.000000000000000000, 1.000000000000000000 ) ) ;
#229 = EDGE_LOOP ( 'NONE', ( #304, #117, #26, #252 ) ) ;
#230 = PRODUCT_RELATED_PRODUCT_CATEGORY ( 'detail', '', ( #251 ) ) ;
#231 = EDGE_LOOP ( 'NONE', ( #205, #103 ) ) ;
#232 = AXIS2_PLACEMENT_3D ( 'NONE', #61, #156, #131 ) ;
#233 = DIRECTION ( 'NONE',  ( -1.000000000000000000, 0.000000000000000000, 0.000000000000000000 ) ) ;
#234 = CC_DESIGN_SECURITY_CLASSIFICATION ( #273, ( #51 ) ) ;
#235 = DIRECTION ( 'NONE',  ( 0.000000000000000000, 0.000000000000000000, 1.000000000000000000 ) ) ;
#236 = CARTESIAN_POINT ( 'NONE',  ( -9.000000000000000000, 0.000000000000000000, 7.000000000000000000 ) ) ;
#237 = EDGE_LOOP ( 'NONE', ( #118, #163 ) ) ;
#238 = APPROVAL_PERSON_ORGANIZATION ( #22, #303, #301 ) ;
#239 = CARTESIAN_POINT ( 'NONE',  ( 6.000000000000000888, 7.347880794884120722E-16, 322.0000000000000000 ) ) ;
#240 = CC_DESIGN_DATE_AND_TIME_ASSIGNMENT ( #204, #299, ( #91 ) ) ;
#241 = APPLICATION_CONTEXT ( 'configuration controlled 3d designs of mechanical parts and assemblies' ) ;
#242 = AXIS2_PLACEMENT_3D ( 'NONE', #74, #73, #149 ) ;
#243 = CYLINDRICAL_SURFACE ( 'NONE', #36, 9.000000000000000000 ) ;
#244 = AXIS2_PLACEMENT_3D ( 'NONE', #264, #216, #265 ) ;
#245 = CARTESIAN_POINT ( 'NONE',  ( -6.000000000000000888, 0.000000000000000000, 322.0000000000000000 ) ) ;
#246 = EDGE_CURVE ( 'NONE', #17, #272, #41, .T. ) ;
#247 = CARTESIAN_POINT ( 'NONE',  ( -6.000000000000000888, 0.000000000000000000, 322.0000000000000000 ) ) ;
#248 = PERSON_AND_ORGANIZATION ( #79, #72 ) ;
#249 =( GEOMETRIC_REPRESENTATION_CONTEXT ( 3 ) GLOBAL_UNCERTAINTY_ASSIGNED_CONTEXT ( ( #100 ) ) GLOBAL_UNIT_ASSIGNED_CONTEXT ( ( #65, #44, #114 ) ) REPRESENTATION_CONTEXT ( 'NONE', 'WORKASPACE' ) );
#250 = APPLICATION_PROTOCOL_DEFINITION ( 'international standard', 'config_control_design', 1994, #241 ) ;
#251 = PRODUCT ( 'f7a1', 'f7a1', '', ( #184 ) ) ;
#252 = ORIENTED_EDGE ( 'NONE', *, *, #246, .T. ) ;
#253 = ORIENTED_EDGE ( 'NONE', *, *, #123, .T. ) ;
#254 = COORDINATED_UNIVERSAL_TIME_OFFSET ( 1, 0, .AHEAD. ) ;
#255 = PERSON_AND_ORGANIZATION ( #79, #72 ) ;
#256 = ORIENTED_EDGE ( 'NONE', *, *, #10, .F. ) ;
#257 = CARTESIAN_POINT ( 'NONE',  ( 6.200000000000001066, 0.000000000000000000, 6.999999999999992006 ) ) ;
#258 = LINE ( 'NONE', #236, #298 ) ;
#259 = TOROIDAL_SURFACE ( 'NONE', #244, 6.200000000000001066, 0.2000000000000000111 ) ;
#260 = ORIENTED_EDGE ( 'NONE', *, *, #136, .T. ) ;
#261 = CARTESIAN_POINT ( 'NONE',  ( 0.000000000000000000, 0.000000000000000000, 322.0000000000000000 ) ) ;
#262 = ORIENTED_EDGE ( 'NONE', *, *, #177, .T. ) ;
#263 = DIRECTION ( 'NONE',  ( 0.000000000000000000, 0.000000000000000000, 1.000000000000000000 ) ) ;
#264 = CARTESIAN_POINT ( 'NONE',  ( 0.000000000000000000, 0.000000000000000000, 7.199999999999984190 ) ) ;
#265 = DIRECTION ( 'NONE',  ( 1.000000000000000000, 0.000000000000000000, 0.000000000000000000 ) ) ;
#266 = DIRECTION ( 'NONE',  ( 0.000000000000000000, 0.000000000000000000, 1.000000000000000000 ) ) ;
#267 = ADVANCED_FACE ( 'NONE', ( #199 ), #37, .F. ) ;
#268 = LOCAL_TIME ( 14, 23, 17.00000000000000000, #93 ) ;
#269 = DIRECTION ( 'NONE',  ( 0.000000000000000000, 0.000000000000000000, 1.000000000000000000 ) ) ;
#270 = PRODUCT_DEFINITION_SHAPE ( 'NONE', 'NONE',  #91 ) ;
#271 = AXIS2_PLACEMENT_3D ( 'NONE', #283, #212, #4 ) ;
#272 = VERTEX_POINT ( 'NONE', #110 ) ;
#273 = SECURITY_CLASSIFICATION ( '', '', #158 ) ;
#274 = VERTEX_POINT ( 'NONE', #81 ) ;
#275 = DATE_AND_TIME ( #186, #268 ) ;
#276 = APPROVAL_DATE_TIME ( #134, #82 ) ;
#277 = VERTEX_POINT ( 'NONE', #239 ) ;
#278 = APPROVAL ( #89, 'NEURÈENÝ' ) ;
#279 = AXIS2_PLACEMENT_3D ( 'NONE', #129, #215, #105 ) ;
#280 = ORIENTED_EDGE ( 'NONE', *, *, #10, .T. ) ;
#281 = ORIENTED_EDGE ( 'NONE', *, *, #101, .F. ) ;
#282 = EDGE_CURVE ( 'NONE', #277, #286, #83, .T. ) ;
#283 = CARTESIAN_POINT ( 'NONE',  ( 0.000000000000000000, 0.000000000000000000, 7.000000000000000000 ) ) ;
#284 = VECTOR ( 'NONE', #196, 1000.000000000000000 ) ;
#285 = EDGE_LOOP ( 'NONE', ( #300, #226, #29, #92 ) ) ;
#286 = VERTEX_POINT ( 'NONE', #219 ) ;
#287 = FACE_OUTER_BOUND ( 'NONE', #285, .T. ) ;
#288 = EDGE_CURVE ( 'NONE', #272, #17, #221, .T. ) ;
#289 = FACE_OUTER_BOUND ( 'NONE', #229, .T. ) ;
#290 = AXIS2_PLACEMENT_3D ( 'NONE', #9, #157, #152 ) ;
#291 = CARTESIAN_POINT ( 'NONE',  ( -9.000000000000000000, 0.000000000000000000, 7.000000000000000000 ) ) ;
#292 = EDGE_CURVE ( 'NONE', #286, #50, #227, .T. ) ;
#293 = CARTESIAN_POINT ( 'NONE',  ( 0.000000000000000000, 0.000000000000000000, 7.000000000000000000 ) ) ;
#294 = DIRECTION ( 'NONE',  ( 1.000000000000000000, 0.000000000000000000, 0.000000000000000000 ) ) ;
#295 = PERSON_AND_ORGANIZATION_ROLE ( 'creator' ) ;
#296 = PERSON_AND_ORGANIZATION ( #79, #72 ) ;
#297 = CC_DESIGN_PERSON_AND_ORGANIZATION_ASSIGNMENT ( #166, #295, ( #91 ) ) ;
#298 = VECTOR ( 'NONE', #124, 1000.000000000000000 ) ;
#299 = DATE_TIME_ROLE ( 'creation_date' ) ;
#300 = ORIENTED_EDGE ( 'NONE', *, *, #136, .F. ) ;
#301 = APPROVAL_ROLE ( '' ) ;
#302 = ORIENTED_EDGE ( 'NONE', *, *, #167, .F. ) ;
#303 = APPROVAL ( #164, 'NEURÈENÝ' ) ;
#304 = ORIENTED_EDGE ( 'NONE', *, *, #39, .F. ) ;
#305 = FACE_OUTER_BOUND ( 'NONE', #43, .T. ) ;
#306 = CARTESIAN_POINT ( 'NONE',  ( 0.000000000000000000, 0.000000000000000000, 322.0000000000000000 ) ) ;
#307 = FACE_BOUND ( 'NONE', #231, .T. ) ;
ENDSEC;
END-ISO-10303-21;
