ISO-10303-21;
HEADER;
FILE_DESCRIPTION (( 'STEP AP203' ),
    '1' );
FILE_NAME ('cd5e.STEP',
    '2022-07-07T12:19:10',
    ( '' ),
    ( '' ),
    'SwSTEP 2.0',
    'SolidWorks 2019',
    '' );
FILE_SCHEMA (( 'CONFIG_CONTROL_DESIGN' ));
ENDSEC;

DATA;
#1 = DIRECTION ( 'NONE',  ( 0.000000000000000000, 0.000000000000000000, 1.000000000000000000 ) ) ;
#2 = CYLINDRICAL_SURFACE ( 'NONE', #162, 9.000000000000000000 ) ;
#3 = AXIS2_PLACEMENT_3D ( 'NONE', #175, #250, #299 ) ;
#4 = CYLINDRICAL_SURFACE ( 'NONE', #129, 12.00000000000000178 ) ;
#5 = CARTESIAN_POINT ( 'NONE',  ( 12.00000000000000178, 1.469576158976824144E-15, 7.000000000000000000 ) ) ;
#6 = CARTESIAN_POINT ( 'NONE',  ( 0.000000000000000000, 0.000000000000000000, 322.0000000000000000 ) ) ;
#7 = ADVANCED_FACE ( 'NONE', ( #170 ), #143, .T. ) ;
#8 = DATE_TIME_ROLE ( 'creation_date' ) ;
#9 = PRODUCT_DEFINITION_FORMATION_WITH_SPECIFIED_SOURCE ( 'LIBOVOLNÝ', '', #65, .NOT_KNOWN. ) ;
#10 = SECURITY_CLASSIFICATION_LEVEL ( 'unclassified' ) ;
#11 = APPROVAL_DATE_TIME ( #31, #223 ) ;
#12 = CIRCLE ( 'NONE', #90, 12.00000000000000178 ) ;
#13 = VERTEX_POINT ( 'NONE', #98 ) ;
#14 = VERTEX_POINT ( 'NONE', #74 ) ;
#15 = EDGE_LOOP ( 'NONE', ( #304, #255 ) ) ;
#16 = CARTESIAN_POINT ( 'NONE',  ( 9.000000000000000000, 1.102182119232617714E-15, 7.199999999999984190 ) ) ;
#17 = DIRECTION ( 'NONE',  ( 0.000000000000000000, 0.000000000000000000, 1.000000000000000000 ) ) ;
#18 = EDGE_CURVE ( 'NONE', #67, #210, #12, .T. ) ;
#19 = ORIENTED_EDGE ( 'NONE', *, *, #43, .T. ) ;
#20 = ORIENTED_EDGE ( 'NONE', *, *, #18, .T. ) ;
#21 = DIRECTION ( 'NONE',  ( -1.000000000000000000, 0.000000000000000000, 0.000000000000000000 ) ) ;
#22 = DIRECTION ( 'NONE',  ( 0.000000000000000000, -1.000000000000000000, 0.000000000000000000 ) ) ;
#23 = CARTESIAN_POINT ( 'NONE',  ( 0.000000000000000000, 0.000000000000000000, 7.000000000000000000 ) ) ;
#24 = DIRECTION ( 'NONE',  ( 1.000000000000000000, 0.000000000000000000, 0.000000000000000000 ) ) ;
#25 = VECTOR ( 'NONE', #221, 1000.000000000000000 ) ;
#26 = DIRECTION ( 'NONE',  ( -0.000000000000000000, -0.000000000000000000, -1.000000000000000000 ) ) ;
#27 = CARTESIAN_POINT ( 'NONE',  ( 0.000000000000000000, 0.000000000000000000, 322.0000000000000000 ) ) ;
#28 = LOCAL_TIME ( 14, 19, 10.00000000000000000, #158 ) ;
#29 = CC_DESIGN_PERSON_AND_ORGANIZATION_ASSIGNMENT ( #207, #85, ( #9 ) ) ;
#30 = APPROVAL_STATUS ( 'not_yet_approved' ) ;
#31 = DATE_AND_TIME ( #252, #28 ) ;
#32 = APPROVAL_ROLE ( '' ) ;
#33 = CIRCLE ( 'NONE', #253, 0.1999999999999996503 ) ;
#34 = EDGE_LOOP ( 'NONE', ( #105, #281, #66, #206 ) ) ;
#35 = ORIENTED_EDGE ( 'NONE', *, *, #113, .F. ) ;
#36 = DIRECTION ( 'NONE',  ( 1.000000000000000000, 0.000000000000000000, 0.000000000000000000 ) ) ;
#37 = AXIS2_PLACEMENT_3D ( 'NONE', #96, #1, #269 ) ;
#38 = CIRCLE ( 'NONE', #199, 9.199999999999999289 ) ;
#39 = LOCAL_TIME ( 14, 19, 10.00000000000000000, #127 ) ;
#40 = CARTESIAN_POINT ( 'NONE',  ( 0.000000000000000000, 0.000000000000000000, 7.000000000000000000 ) ) ;
#41 = ORIENTED_EDGE ( 'NONE', *, *, #47, .F. ) ;
#42 = FACE_BOUND ( 'NONE', #257, .T. ) ;
#43 = EDGE_CURVE ( 'NONE', #230, #112, #192, .T. ) ;
#44 = ORIENTED_EDGE ( 'NONE', *, *, #191, .F. ) ;
#45 = VECTOR ( 'NONE', #184, 1000.000000000000000 ) ;
#46 = CARTESIAN_POINT ( 'NONE',  ( -9.000000000000000000, 0.000000000000000000, 7.199999999999984190 ) ) ;
#47 = EDGE_CURVE ( 'NONE', #14, #234, #51, .T. ) ;
#48 = DIRECTION ( 'NONE',  ( 1.000000000000000000, 0.000000000000000000, 0.000000000000000000 ) ) ;
#49 = DIRECTION ( 'NONE',  ( 0.000000000000000000, 0.000000000000000000, 1.000000000000000000 ) ) ;
#50 = PLANE ( 'NONE',  #86 ) ;
#51 = CIRCLE ( 'NONE', #37, 12.00000000000000178 ) ;
#52 = DIRECTION ( 'NONE',  ( 0.000000000000000000, 0.000000000000000000, 1.000000000000000000 ) ) ;
#53 = TOROIDAL_SURFACE ( 'NONE', #62, 9.199999999999999289, 0.2000000000000000111 ) ;
#54 = PERSON_AND_ORGANIZATION ( #254, #305 ) ;
#55 = CC_DESIGN_PERSON_AND_ORGANIZATION_ASSIGNMENT ( #226, #228, ( #256 ) ) ;
#56 = CALENDAR_DATE ( 2022, 7, 7 ) ;
#57 = AXIS2_PLACEMENT_3D ( 'NONE', #23, #145, #120 ) ;
#58 = TOROIDAL_SURFACE ( 'NONE', #137, 9.199999999999999289, 0.2000000000000000111 ) ;
#59 = PERSON_AND_ORGANIZATION ( #254, #305 ) ;
#60 = PERSON_AND_ORGANIZATION_ROLE ( 'design_owner' ) ;
#61 = DESIGN_CONTEXT ( 'detailed design', #208, 'design' ) ;
#62 = AXIS2_PLACEMENT_3D ( 'NONE', #194, #52, #211 ) ;
#63 = EDGE_LOOP ( 'NONE', ( #41, #189 ) ) ;
#64 = UNCERTAINTY_MEASURE_WITH_UNIT (LENGTH_MEASURE( 1.000000000000000082E-05 ), #303, 'distance_accuracy_value', 'NONE');
#65 = PRODUCT ( 'cd5e', 'cd5e', '', ( #88 ) ) ;
#66 = ORIENTED_EDGE ( 'NONE', *, *, #280, .T. ) ;
#67 = VERTEX_POINT ( 'NONE', #217 ) ;
#68 = DIRECTION ( 'NONE',  ( 1.000000000000000000, 0.000000000000000000, 0.000000000000000000 ) ) ;
#69 = CLOSED_SHELL ( 'NONE', ( #157, #82, #7, #141, #278, #181, #166, #156, #209 ) ) ;
#70 =( GEOMETRIC_REPRESENTATION_CONTEXT ( 3 ) GLOBAL_UNCERTAINTY_ASSIGNED_CONTEXT ( ( #64 ) ) GLOBAL_UNIT_ASSIGNED_CONTEXT ( ( #303, #180, #279 ) ) REPRESENTATION_CONTEXT ( 'NONE', 'WORKASPACE' ) );
#71 = DIRECTION ( 'NONE',  ( 0.000000000000000000, 0.000000000000000000, 1.000000000000000000 ) ) ;
#72 = EDGE_LOOP ( 'NONE', ( #301, #298, #291, #135 ) ) ;
#73 = PRODUCT_RELATED_PRODUCT_CATEGORY ( 'detail', '', ( #65 ) ) ;
#74 = CARTESIAN_POINT ( 'NONE',  ( -12.00000000000000178, 0.000000000000000000, 0.000000000000000000 ) ) ;
#75 = CARTESIAN_POINT ( 'NONE',  ( 9.199999999999999289, 0.000000000000000000, 7.199999999999984190 ) ) ;
#76 = EDGE_LOOP ( 'NONE', ( #101, #182, #118, #160 ) ) ;
#77 = DIRECTION ( 'NONE',  ( 1.000000000000000000, 0.000000000000000000, -0.000000000000000000 ) ) ;
#78 = CC_DESIGN_DATE_AND_TIME_ASSIGNMENT ( #154, #204, ( #205 ) ) ;
#79 = VERTEX_POINT ( 'NONE', #193 ) ;
#80 = CARTESIAN_POINT ( 'NONE',  ( 0.000000000000000000, 0.000000000000000000, 0.000000000000000000 ) ) ;
#81 = PLANE ( 'NONE',  #200 ) ;
#82 = ADVANCED_FACE ( 'NONE', ( #119 ), #117, .T. ) ;
#83 = DATE_AND_TIME ( #295, #219 ) ;
#84 = DATE_AND_TIME ( #274, #259 ) ;
#85 = PERSON_AND_ORGANIZATION_ROLE ( 'creator' ) ;
#86 = AXIS2_PLACEMENT_3D ( 'NONE', #148, #243, #123 ) ;
#87 = AXIS2_PLACEMENT_3D ( 'NONE', #27, #147, #68 ) ;
#88 = MECHANICAL_CONTEXT ( 'NONE', #99, 'mechanical' ) ;
#89 = ORIENTED_EDGE ( 'NONE', *, *, #251, .T. ) ;
#90 = AXIS2_PLACEMENT_3D ( 'NONE', #190, #215, #48 ) ;
#91 = APPROVAL_PERSON_ORGANIZATION ( #54, #247, #153 ) ;
#92 = EDGE_CURVE ( 'NONE', #13, #288, #289, .T. ) ;
#93 = ORIENTED_EDGE ( 'NONE', *, *, #103, .T. ) ;
#94 = DIRECTION ( 'NONE',  ( 0.000000000000000000, 0.000000000000000000, 1.000000000000000000 ) ) ;
#95 = EDGE_LOOP ( 'NONE', ( #237, #121, #165, #306 ) ) ;
#96 = CARTESIAN_POINT ( 'NONE',  ( 0.000000000000000000, 0.000000000000000000, 0.000000000000000000 ) ) ;
#97 = CC_DESIGN_APPROVAL ( #235, ( #256 ) ) ;
#98 = CARTESIAN_POINT ( 'NONE',  ( 9.000000000000000000, 1.102182119232617714E-15, 322.0000000000000000 ) ) ;
#99 = APPLICATION_CONTEXT ( 'configuration controlled 3d designs of mechanical parts and assemblies' ) ;
#100 = DIRECTION ( 'NONE',  ( -0.000000000000000000, -0.000000000000000000, -1.000000000000000000 ) ) ;
#101 = ORIENTED_EDGE ( 'NONE', *, *, #173, .F. ) ;
#102 = AXIS2_PLACEMENT_3D ( 'NONE', #6, #174, #107 ) ;
#103 = EDGE_CURVE ( 'NONE', #288, #230, #33, .T. ) ;
#104 = FACE_OUTER_BOUND ( 'NONE', #95, .T. ) ;
#105 = ORIENTED_EDGE ( 'NONE', *, *, #134, .F. ) ;
#106 = CARTESIAN_POINT ( 'NONE',  ( 12.00000000000000178, 1.469576158976824144E-15, 7.000000000000000000 ) ) ;
#107 = DIRECTION ( 'NONE',  ( 1.000000000000000000, 0.000000000000000000, 0.000000000000000000 ) ) ;
#108 = CC_DESIGN_PERSON_AND_ORGANIZATION_ASSIGNMENT ( #109, #273, ( #205 ) ) ;
#109 = PERSON_AND_ORGANIZATION ( #254, #305 ) ;
#110 = SHAPE_DEFINITION_REPRESENTATION ( #282, #239 ) ;
#111 = VECTOR ( 'NONE', #232, 1000.000000000000000 ) ;
#112 = VERTEX_POINT ( 'NONE', #172 ) ;
#113 = EDGE_CURVE ( 'NONE', #112, #230, #38, .T. ) ;
#114 = EDGE_LOOP ( 'NONE', ( #20, #284 ) ) ;
#115 = VERTEX_POINT ( 'NONE', #46 ) ;
#116 = CARTESIAN_POINT ( 'NONE',  ( -9.000000000000000000, 0.000000000000000000, 322.0000000000000000 ) ) ;
#117 = CYLINDRICAL_SURFACE ( 'NONE', #213, 9.000000000000000000 ) ;
#118 = ORIENTED_EDGE ( 'NONE', *, *, #191, .T. ) ;
#119 = FACE_OUTER_BOUND ( 'NONE', #76, .T. ) ;
#120 = DIRECTION ( 'NONE',  ( 1.000000000000000000, 0.000000000000000000, 0.000000000000000000 ) ) ;
#121 = ORIENTED_EDGE ( 'NONE', *, *, #227, .T. ) ;
#122 = APPROVAL_PERSON_ORGANIZATION ( #296, #223, #277 ) ;
#123 = DIRECTION ( 'NONE',  ( 1.000000000000000000, 0.000000000000000000, -0.000000000000000000 ) ) ;
#124 = FACE_OUTER_BOUND ( 'NONE', #15, .T. ) ;
#125 = DIRECTION ( 'NONE',  ( 0.000000000000000000, 0.000000000000000000, 1.000000000000000000 ) ) ;
#126 = CC_DESIGN_DATE_AND_TIME_ASSIGNMENT ( #83, #8, ( #256 ) ) ;
#127 = COORDINATED_UNIVERSAL_TIME_OFFSET ( 1, 0, .AHEAD. ) ;
#128 = PERSON_AND_ORGANIZATION_ROLE ( 'design_supplier' ) ;
#129 = AXIS2_PLACEMENT_3D ( 'NONE', #244, #26, #270 ) ;
#130 = APPLICATION_PROTOCOL_DEFINITION ( 'international standard', 'config_control_design', 1994, #99 ) ;
#131 = CC_DESIGN_PERSON_AND_ORGANIZATION_ASSIGNMENT ( #225, #128, ( #9 ) ) ;
#132 = CALENDAR_DATE ( 2022, 7, 7 ) ;
#133 = LOCAL_TIME ( 14, 19, 10.00000000000000000, #275 ) ;
#134 = EDGE_CURVE ( 'NONE', #210, #67, #266, .T. ) ;
#135 = ORIENTED_EDGE ( 'NONE', *, *, #47, .T. ) ;
#136 = CARTESIAN_POINT ( 'NONE',  ( -12.00000000000000178, 0.000000000000000000, 7.000000000000000000 ) ) ;
#137 = AXIS2_PLACEMENT_3D ( 'NONE', #246, #49, #186 ) ;
#138 = CARTESIAN_POINT ( 'NONE',  ( 0.000000000000000000, 0.000000000000000000, 7.199999999999984190 ) ) ;
#139 = ORIENTED_EDGE ( 'NONE', *, *, #227, .F. ) ;
#140 = DIRECTION ( 'NONE',  ( 1.000000000000000000, 0.000000000000000000, -0.000000000000000000 ) ) ;
#141 = ADVANCED_FACE ( 'NONE', ( #220 ), #4, .T. ) ;
#142 = DIRECTION ( 'NONE',  ( -1.000000000000000000, 0.000000000000000000, 0.000000000000000000 ) ) ;
#143 = CYLINDRICAL_SURFACE ( 'NONE', #149, 12.00000000000000178 ) ;
#144 = CIRCLE ( 'NONE', #87, 9.000000000000000000 ) ;
#145 = DIRECTION ( 'NONE',  ( 0.000000000000000000, 0.000000000000000000, 1.000000000000000000 ) ) ;
#146 = CARTESIAN_POINT ( 'NONE',  ( 0.000000000000000000, 0.000000000000000000, 7.000000000000000000 ) ) ;
#147 = DIRECTION ( 'NONE',  ( 0.000000000000000000, 0.000000000000000000, 1.000000000000000000 ) ) ;
#148 = CARTESIAN_POINT ( 'NONE',  ( 0.000000000000000000, 0.000000000000000000, 322.0000000000000000 ) ) ;
#149 = AXIS2_PLACEMENT_3D ( 'NONE', #146, #240, #21 ) ;
#150 = CC_DESIGN_APPROVAL ( #223, ( #205 ) ) ;
#151 = DIRECTION ( 'NONE',  ( 1.224646799147353207E-16, 1.000000000000000000, -0.000000000000000000 ) ) ;
#152 = COORDINATED_UNIVERSAL_TIME_OFFSET ( 1, 0, .AHEAD. ) ;
#153 = APPROVAL_ROLE ( '' ) ;
#154 = DATE_AND_TIME ( #56, #133 ) ;
#155 = CIRCLE ( 'NONE', #231, 9.000000000000000000 ) ;
#156 = ADVANCED_FACE ( 'NONE', ( #124 ), #50, .T. ) ;
#157 = ADVANCED_FACE ( 'NONE', ( #104 ), #53, .F. ) ;
#158 = COORDINATED_UNIVERSAL_TIME_OFFSET ( 1, 0, .AHEAD. ) ;
#159 = DATE_AND_TIME ( #132, #39 ) ;
#160 = ORIENTED_EDGE ( 'NONE', *, *, #264, .F. ) ;
#161 = DIRECTION ( 'NONE',  ( 1.000000000000000000, 0.000000000000000000, 0.000000000000000000 ) ) ;
#162 = AXIS2_PLACEMENT_3D ( 'NONE', #196, #164, #218 ) ;
#163 = EDGE_LOOP ( 'NONE', ( #139, #44, #93, #35 ) ) ;
#164 = DIRECTION ( 'NONE',  ( -0.000000000000000000, -0.000000000000000000, -1.000000000000000000 ) ) ;
#165 = ORIENTED_EDGE ( 'NONE', *, *, #43, .F. ) ;
#166 = ADVANCED_FACE ( 'NONE', ( #283 ), #2, .T. ) ;
#167 = DIRECTION ( 'NONE',  ( -0.000000000000000000, -0.000000000000000000, -1.000000000000000000 ) ) ;
#168 = DIRECTION ( 'NONE',  ( 0.000000000000000000, 0.000000000000000000, -1.000000000000000000 ) ) ;
#169 = AXIS2_PLACEMENT_3D ( 'NONE', #212, #236, #36 ) ;
#170 = FACE_OUTER_BOUND ( 'NONE', #34, .T. ) ;
#171 = FACE_OUTER_BOUND ( 'NONE', #63, .T. ) ;
#172 = CARTESIAN_POINT ( 'NONE',  ( -9.199999999999999289, 1.126675055215564822E-15, 6.999999999999992006 ) ) ;
#173 = EDGE_CURVE ( 'NONE', #13, #79, #144, .T. ) ;
#174 = DIRECTION ( 'NONE',  ( 0.000000000000000000, 0.000000000000000000, 1.000000000000000000 ) ) ;
#175 = CARTESIAN_POINT ( 'NONE',  ( 0.000000000000000000, 0.000000000000000000, 0.000000000000000000 ) ) ;
#176 = APPROVAL_STATUS ( 'not_yet_approved' ) ;
#177 = APPROVAL_DATE_TIME ( #84, #247 ) ;
#178 = VECTOR ( 'NONE', #100, 1000.000000000000000 ) ;
#179 = APPROVAL_STATUS ( 'not_yet_approved' ) ;
#180 =( NAMED_UNIT ( * ) PLANE_ANGLE_UNIT ( ) SI_UNIT ( $, .RADIAN. ) );
#181 = ADVANCED_FACE ( 'NONE', ( #171 ), #290, .F. ) ;
#182 = ORIENTED_EDGE ( 'NONE', *, *, #92, .T. ) ;
#183 = EDGE_LOOP ( 'NONE', ( #286, #261, #195, #89 ) ) ;
#184 = DIRECTION ( 'NONE',  ( -0.000000000000000000, -0.000000000000000000, -1.000000000000000000 ) ) ;
#185 = AXIS2_PLACEMENT_3D ( 'NONE', #263, #167, #307 ) ;
#186 = DIRECTION ( 'NONE',  ( 1.000000000000000000, 0.000000000000000000, 0.000000000000000000 ) ) ;
#187 = CIRCLE ( 'NONE', #229, 0.2000000000000005107 ) ;
#188 = DIRECTION ( 'NONE',  ( -0.000000000000000000, -0.000000000000000000, -1.000000000000000000 ) ) ;
#189 = ORIENTED_EDGE ( 'NONE', *, *, #280, .F. ) ;
#190 = CARTESIAN_POINT ( 'NONE',  ( 0.000000000000000000, 0.000000000000000000, 7.000000000000000000 ) ) ;
#191 = EDGE_CURVE ( 'NONE', #288, #115, #276, .T. ) ;
#192 = CIRCLE ( 'NONE', #185, 9.199999999999999289 ) ;
#193 = CARTESIAN_POINT ( 'NONE',  ( -9.000000000000000000, 0.000000000000000000, 322.0000000000000000 ) ) ;
#194 = CARTESIAN_POINT ( 'NONE',  ( 0.000000000000000000, 0.000000000000000000, 7.199999999999984190 ) ) ;
#195 = ORIENTED_EDGE ( 'NONE', *, *, #264, .T. ) ;
#196 = CARTESIAN_POINT ( 'NONE',  ( 0.000000000000000000, 0.000000000000000000, 322.0000000000000000 ) ) ;
#197 = LINE ( 'NONE', #116, #111 ) ;
#198 = EDGE_CURVE ( 'NONE', #67, #14, #271, .T. ) ;
#199 = AXIS2_PLACEMENT_3D ( 'NONE', #241, #268, #242 ) ;
#200 = AXIS2_PLACEMENT_3D ( 'NONE', #40, #17, #140 ) ;
#201 = APPLICATION_PROTOCOL_DEFINITION ( 'international standard', 'config_control_design', 1994, #208 ) ;
#202 = APPROVAL_DATE_TIME ( #159, #235 ) ;
#203 = EDGE_CURVE ( 'NONE', #210, #234, #262, .T. ) ;
#204 = DATE_TIME_ROLE ( 'classification_date' ) ;
#205 = SECURITY_CLASSIFICATION ( '', '', #10 ) ;
#206 = ORIENTED_EDGE ( 'NONE', *, *, #198, .F. ) ;
#207 = PERSON_AND_ORGANIZATION ( #254, #305 ) ;
#208 = APPLICATION_CONTEXT ( 'configuration controlled 3d designs of mechanical parts and assemblies' ) ;
#209 = ADVANCED_FACE ( 'NONE', ( #302 ), #58, .F. ) ;
#210 = VERTEX_POINT ( 'NONE', #106 ) ;
#211 = DIRECTION ( 'NONE',  ( 1.000000000000000000, 0.000000000000000000, 0.000000000000000000 ) ) ;
#212 = CARTESIAN_POINT ( 'NONE',  ( 0.000000000000000000, 0.000000000000000000, 0.000000000000000000 ) ) ;
#213 = AXIS2_PLACEMENT_3D ( 'NONE', #216, #188, #142 ) ;
#214 = CC_DESIGN_PERSON_AND_ORGANIZATION_ASSIGNMENT ( #59, #60, ( #65 ) ) ;
#215 = DIRECTION ( 'NONE',  ( 0.000000000000000000, 0.000000000000000000, 1.000000000000000000 ) ) ;
#216 = CARTESIAN_POINT ( 'NONE',  ( 0.000000000000000000, 0.000000000000000000, 322.0000000000000000 ) ) ;
#217 = CARTESIAN_POINT ( 'NONE',  ( -12.00000000000000178, 0.000000000000000000, 7.000000000000000000 ) ) ;
#218 = DIRECTION ( 'NONE',  ( -1.000000000000000000, 0.000000000000000000, 0.000000000000000000 ) ) ;
#219 = LOCAL_TIME ( 14, 19, 10.00000000000000000, #152 ) ;
#220 = FACE_OUTER_BOUND ( 'NONE', #72, .T. ) ;
#221 = DIRECTION ( 'NONE',  ( -0.000000000000000000, -0.000000000000000000, -1.000000000000000000 ) ) ;
#222 = CARTESIAN_POINT ( 'NONE',  ( 12.00000000000000178, 1.469576158976824144E-15, 0.000000000000000000 ) ) ;
#223 = APPROVAL ( #179, 'NEURÈENÝ' ) ;
#224 = APPROVAL_PERSON_ORGANIZATION ( #294, #235, #32 ) ;
#225 = PERSON_AND_ORGANIZATION ( #254, #305 ) ;
#226 = PERSON_AND_ORGANIZATION ( #254, #305 ) ;
#227 = EDGE_CURVE ( 'NONE', #115, #112, #187, .T. ) ;
#228 = PERSON_AND_ORGANIZATION_ROLE ( 'creator' ) ;
#229 = AXIS2_PLACEMENT_3D ( 'NONE', #292, #151, #293 ) ;
#230 = VERTEX_POINT ( 'NONE', #233 ) ;
#231 = AXIS2_PLACEMENT_3D ( 'NONE', #285, #94, #161 ) ;
#232 = DIRECTION ( 'NONE',  ( -0.000000000000000000, -0.000000000000000000, -1.000000000000000000 ) ) ;
#233 = CARTESIAN_POINT ( 'NONE',  ( 9.199999999999999289, 0.000000000000000000, 6.999999999999992006 ) ) ;
#234 = VERTEX_POINT ( 'NONE', #222 ) ;
#235 = APPROVAL ( #30, 'NEURÈENÝ' ) ;
#236 = DIRECTION ( 'NONE',  ( 0.000000000000000000, 0.000000000000000000, 1.000000000000000000 ) ) ;
#237 = ORIENTED_EDGE ( 'NONE', *, *, #251, .F. ) ;
#238 = CIRCLE ( 'NONE', #102, 9.000000000000000000 ) ;
#239 = ADVANCED_BREP_SHAPE_REPRESENTATION ( 'cd5e', ( #245, #3 ), #70 ) ;
#240 = DIRECTION ( 'NONE',  ( -0.000000000000000000, -0.000000000000000000, -1.000000000000000000 ) ) ;
#241 = CARTESIAN_POINT ( 'NONE',  ( 0.000000000000000000, 0.000000000000000000, 7.000000000000000000 ) ) ;
#242 = DIRECTION ( 'NONE',  ( 1.000000000000000000, 0.000000000000000000, 0.000000000000000000 ) ) ;
#243 = DIRECTION ( 'NONE',  ( 0.000000000000000000, 0.000000000000000000, 1.000000000000000000 ) ) ;
#244 = CARTESIAN_POINT ( 'NONE',  ( 0.000000000000000000, 0.000000000000000000, 7.000000000000000000 ) ) ;
#245 = MANIFOLD_SOLID_BREP ( 'Zaoblit1', #69 ) ;
#246 = CARTESIAN_POINT ( 'NONE',  ( 0.000000000000000000, 0.000000000000000000, 7.199999999999984190 ) ) ;
#247 = APPROVAL ( #176, 'NEURÈENÝ' ) ;
#248 = COORDINATED_UNIVERSAL_TIME_OFFSET ( 1, 0, .AHEAD. ) ;
#249 = CIRCLE ( 'NONE', #169, 12.00000000000000178 ) ;
#250 = DIRECTION ( 'NONE',  ( 0.000000000000000000, 0.000000000000000000, 1.000000000000000000 ) ) ;
#251 = EDGE_CURVE ( 'NONE', #115, #288, #155, .T. ) ;
#252 = CALENDAR_DATE ( 2022, 7, 7 ) ;
#253 = AXIS2_PLACEMENT_3D ( 'NONE', #75, #22, #168 ) ;
#254 = PERSON ( 'NEURÈENÝ', 'NEURÈENÝ', 'NEURÈENÝ', ('NEURÈENÝ'), ('NEURÈENÝ'), ('NEURÈENÝ') ) ;
#255 = ORIENTED_EDGE ( 'NONE', *, *, #173, .T. ) ;
#256 = PRODUCT_DEFINITION ( 'NEZNÁMÝ', '', #9, #61 ) ;
#257 = EDGE_LOOP ( 'NONE', ( #19, #287 ) ) ;
#258 = EDGE_CURVE ( 'NONE', #79, #13, #238, .T. ) ;
#259 = LOCAL_TIME ( 14, 19, 10.00000000000000000, #248 ) ;
#260 = FACE_OUTER_BOUND ( 'NONE', #114, .T. ) ;
#261 = ORIENTED_EDGE ( 'NONE', *, *, #258, .F. ) ;
#262 = LINE ( 'NONE', #5, #45 ) ;
#263 = CARTESIAN_POINT ( 'NONE',  ( 0.000000000000000000, 0.000000000000000000, 7.000000000000000000 ) ) ;
#264 = EDGE_CURVE ( 'NONE', #79, #115, #197, .T. ) ;
#265 = CARTESIAN_POINT ( 'NONE',  ( 9.000000000000000000, 1.102182119232617714E-15, 322.0000000000000000 ) ) ;
#266 = CIRCLE ( 'NONE', #57, 12.00000000000000178 ) ;
#267 = AXIS2_PLACEMENT_3D ( 'NONE', #138, #71, #24 ) ;
#268 = DIRECTION ( 'NONE',  ( -0.000000000000000000, -0.000000000000000000, -1.000000000000000000 ) ) ;
#269 = DIRECTION ( 'NONE',  ( 1.000000000000000000, 0.000000000000000000, 0.000000000000000000 ) ) ;
#270 = DIRECTION ( 'NONE',  ( -1.000000000000000000, 0.000000000000000000, 0.000000000000000000 ) ) ;
#271 = LINE ( 'NONE', #136, #25 ) ;
#272 = CC_DESIGN_APPROVAL ( #247, ( #9 ) ) ;
#273 = PERSON_AND_ORGANIZATION_ROLE ( 'classification_officer' ) ;
#274 = CALENDAR_DATE ( 2022, 7, 7 ) ;
#275 = COORDINATED_UNIVERSAL_TIME_OFFSET ( 1, 0, .AHEAD. ) ;
#276 = CIRCLE ( 'NONE', #267, 9.000000000000000000 ) ;
#277 = APPROVAL_ROLE ( '' ) ;
#278 = ADVANCED_FACE ( 'NONE', ( #42, #260 ), #81, .T. ) ;
#279 =( NAMED_UNIT ( * ) SI_UNIT ( $, .STERADIAN. ) SOLID_ANGLE_UNIT ( ) );
#280 = EDGE_CURVE ( 'NONE', #234, #14, #249, .T. ) ;
#281 = ORIENTED_EDGE ( 'NONE', *, *, #203, .T. ) ;
#282 = PRODUCT_DEFINITION_SHAPE ( 'NONE', 'NONE',  #256 ) ;
#283 = FACE_OUTER_BOUND ( 'NONE', #183, .T. ) ;
#284 = ORIENTED_EDGE ( 'NONE', *, *, #134, .T. ) ;
#285 = CARTESIAN_POINT ( 'NONE',  ( 0.000000000000000000, 0.000000000000000000, 7.199999999999984190 ) ) ;
#286 = ORIENTED_EDGE ( 'NONE', *, *, #92, .F. ) ;
#287 = ORIENTED_EDGE ( 'NONE', *, *, #113, .T. ) ;
#288 = VERTEX_POINT ( 'NONE', #16 ) ;
#289 = LINE ( 'NONE', #265, #178 ) ;
#290 = PLANE ( 'NONE',  #300 ) ;
#291 = ORIENTED_EDGE ( 'NONE', *, *, #198, .T. ) ;
#292 = CARTESIAN_POINT ( 'NONE',  ( -9.199999999999999289, 1.126675055215564822E-15, 7.199999999999984190 ) ) ;
#293 = DIRECTION ( 'NONE',  ( -1.000000000000000000, 1.224646799147353207E-16, 0.000000000000000000 ) ) ;
#294 = PERSON_AND_ORGANIZATION ( #254, #305 ) ;
#295 = CALENDAR_DATE ( 2022, 7, 7 ) ;
#296 = PERSON_AND_ORGANIZATION ( #254, #305 ) ;
#297 = CC_DESIGN_SECURITY_CLASSIFICATION ( #205, ( #9 ) ) ;
#298 = ORIENTED_EDGE ( 'NONE', *, *, #18, .F. ) ;
#299 = DIRECTION ( 'NONE',  ( 1.000000000000000000, 0.000000000000000000, 0.000000000000000000 ) ) ;
#300 = AXIS2_PLACEMENT_3D ( 'NONE', #80, #125, #77 ) ;
#301 = ORIENTED_EDGE ( 'NONE', *, *, #203, .F. ) ;
#302 = FACE_OUTER_BOUND ( 'NONE', #163, .T. ) ;
#303 =( LENGTH_UNIT ( ) NAMED_UNIT ( * ) SI_UNIT ( .MILLI., .METRE. ) );
#304 = ORIENTED_EDGE ( 'NONE', *, *, #258, .T. ) ;
#305 = ORGANIZATION ( 'NEURÈENÝ', 'NEURÈENÝ', '' ) ;
#306 = ORIENTED_EDGE ( 'NONE', *, *, #103, .F. ) ;
#307 = DIRECTION ( 'NONE',  ( 1.000000000000000000, 0.000000000000000000, 0.000000000000000000 ) ) ;
ENDSEC;
END-ISO-10303-21;
