ISO-10303-21;
HEADER;
FILE_DESCRIPTION (( 'STEP AP203' ),
    '1' );
FILE_NAME ('eeb0.STEP',
    '2023-02-12T12:01:26',
    ( '' ),
    ( '' ),
    'SwSTEP 2.0',
    'SolidWorks 2019',
    '' );
FILE_SCHEMA (( 'CONFIG_CONTROL_DESIGN' ));
ENDSEC;

DATA;
#1 = CARTESIAN_POINT ( 'NONE',  ( 4.000000000000000000, 4.898587196589412829E-16, 3.000000000000000000 ) ) ;
#2 = MANIFOLD_SOLID_BREP ( 'Pøidat vysunutím3', #127 ) ;
#3 = ORIENTED_EDGE ( 'NONE', *, *, #31, .F. ) ;
#4 = CIRCLE ( 'NONE', #140, 2.100000000000000089 ) ;
#5 = MECHANICAL_CONTEXT ( 'NONE', #253, 'mechanical' ) ;
#6 = ORIENTED_EDGE ( 'NONE', *, *, #16, .T. ) ;
#7 = APPROVAL_ROLE ( '' ) ;
#8 = SHAPE_DEFINITION_REPRESENTATION ( #200, #172 ) ;
#9 = CALENDAR_DATE ( 2023, 12, 2 ) ;
#10 = PLANE ( 'NONE',  #119 ) ;
#11 = VERTEX_POINT ( 'NONE', #226 ) ;
#12 = VECTOR ( 'NONE', #121, 1000.000000000000000 ) ;
#13 = CARTESIAN_POINT ( 'NONE',  ( -4.000000000000000000, 0.000000000000000000, 0.000000000000000000 ) ) ;
#14 = CC_DESIGN_APPROVAL ( #113, ( #118 ) ) ;
#15 = CARTESIAN_POINT ( 'NONE',  ( -4.000000000000000000, 0.000000000000000000, 3.000000000000000000 ) ) ;
#16 = EDGE_CURVE ( 'NONE', #11, #55, #176, .T. ) ;
#17 = EDGE_LOOP ( 'NONE', ( #149, #88 ) ) ;
#18 = DIRECTION ( 'NONE',  ( -0.000000000000000000, -0.000000000000000000, -1.000000000000000000 ) ) ;
#19 = AXIS2_PLACEMENT_3D ( 'NONE', #75, #77, #235 ) ;
#20 = DIRECTION ( 'NONE',  ( -0.000000000000000000, -0.000000000000000000, -1.000000000000000000 ) ) ;
#21 = APPROVAL ( #49, 'NEURÈENÝ' ) ;
#22 = CARTESIAN_POINT ( 'NONE',  ( -2.100000000000000089, 0.000000000000000000, 100.0000000000000000 ) ) ;
#23 = CC_DESIGN_PERSON_AND_ORGANIZATION_ASSIGNMENT ( #122, #206, ( #105 ) ) ;
#24 = DIRECTION ( 'NONE',  ( 1.000000000000000000, 0.000000000000000000, 0.000000000000000000 ) ) ;
#25 = EDGE_CURVE ( 'NONE', #73, #93, #45, .T. ) ;
#26 = CYLINDRICAL_SURFACE ( 'NONE', #57, 4.000000000000000000 ) ;
#27 = ORIENTED_EDGE ( 'NONE', *, *, #82, .T. ) ;
#28 = DIRECTION ( 'NONE',  ( 0.000000000000000000, 0.000000000000000000, 1.000000000000000000 ) ) ;
#29 = FACE_BOUND ( 'NONE', #103, .T. ) ;
#30 = COORDINATED_UNIVERSAL_TIME_OFFSET ( 1, 0, .AHEAD. ) ;
#31 = EDGE_CURVE ( 'NONE', #93, #73, #254, .T. ) ;
#32 =( LENGTH_UNIT ( ) NAMED_UNIT ( * ) SI_UNIT ( .MILLI., .METRE. ) );
#33 = EDGE_LOOP ( 'NONE', ( #36, #185 ) ) ;
#34 = CC_DESIGN_DATE_AND_TIME_ASSIGNMENT ( #141, #186, ( #105 ) ) ;
#35 = SECURITY_CLASSIFICATION_LEVEL ( 'unclassified' ) ;
#36 = ORIENTED_EDGE ( 'NONE', *, *, #31, .T. ) ;
#37 = DIRECTION ( 'NONE',  ( -1.000000000000000000, 0.000000000000000000, 0.000000000000000000 ) ) ;
#38 = CARTESIAN_POINT ( 'NONE',  ( 0.000000000000000000, 0.000000000000000000, 0.000000000000000000 ) ) ;
#39 = CIRCLE ( 'NONE', #131, 2.100000000000000089 ) ;
#40 = VERTEX_POINT ( 'NONE', #22 ) ;
#41 = CARTESIAN_POINT ( 'NONE',  ( 0.000000000000000000, 0.000000000000000000, 100.0000000000000000 ) ) ;
#42 = CARTESIAN_POINT ( 'NONE',  ( 0.000000000000000000, 0.000000000000000000, 3.000000000000000000 ) ) ;
#43 = EDGE_CURVE ( 'NONE', #251, #246, #195, .T. ) ;
#44 = PERSON_AND_ORGANIZATION ( #107, #198 ) ;
#45 = CIRCLE ( 'NONE', #248, 4.000000000000000000 ) ;
#46 = EDGE_LOOP ( 'NONE', ( #154, #196 ) ) ;
#47 = ADVANCED_FACE ( 'NONE', ( #29, #160 ), #10, .T. ) ;
#48 = LOCAL_TIME ( 13, 1, 26.00000000000000000, #100 ) ;
#49 = APPROVAL_STATUS ( 'not_yet_approved' ) ;
#50 = DIRECTION ( 'NONE',  ( 1.000000000000000000, 0.000000000000000000, 0.000000000000000000 ) ) ;
#51 = APPROVAL_PERSON_ORGANIZATION ( #222, #113, #250 ) ;
#52 = DIRECTION ( 'NONE',  ( -0.000000000000000000, -0.000000000000000000, -1.000000000000000000 ) ) ;
#53 = CARTESIAN_POINT ( 'NONE',  ( -4.000000000000000000, 0.000000000000000000, 3.000000000000000000 ) ) ;
#54 = EDGE_CURVE ( 'NONE', #217, #40, #39, .T. ) ;
#55 = VERTEX_POINT ( 'NONE', #13 ) ;
#56 = LINE ( 'NONE', #203, #164 ) ;
#57 = AXIS2_PLACEMENT_3D ( 'NONE', #112, #52, #102 ) ;
#58 = DIRECTION ( 'NONE',  ( -1.000000000000000000, 0.000000000000000000, 0.000000000000000000 ) ) ;
#59 = DIRECTION ( 'NONE',  ( 1.000000000000000000, 0.000000000000000000, 0.000000000000000000 ) ) ;
#60 = EDGE_LOOP ( 'NONE', ( #202, #27, #165, #245 ) ) ;
#61 = EDGE_CURVE ( 'NONE', #40, #217, #4, .T. ) ;
#62 = FACE_OUTER_BOUND ( 'NONE', #180, .T. ) ;
#63 = CC_DESIGN_APPROVAL ( #133, ( #114 ) ) ;
#64 = ORIENTED_EDGE ( 'NONE', *, *, #43, .F. ) ;
#65 = DIRECTION ( 'NONE',  ( -0.000000000000000000, -0.000000000000000000, -1.000000000000000000 ) ) ;
#66 = AXIS2_PLACEMENT_3D ( 'NONE', #221, #182, #137 ) ;
#67 = APPLICATION_CONTEXT ( 'configuration controlled 3d designs of mechanical parts and assemblies' ) ;
#68 = LOCAL_TIME ( 13, 1, 26.00000000000000000, #30 ) ;
#69 = CALENDAR_DATE ( 2023, 12, 2 ) ;
#70 = PERSON_AND_ORGANIZATION ( #107, #198 ) ;
#71 = CC_DESIGN_PERSON_AND_ORGANIZATION_ASSIGNMENT ( #166, #124, ( #118 ) ) ;
#72 = CARTESIAN_POINT ( 'NONE',  ( 0.000000000000000000, 0.000000000000000000, 100.0000000000000000 ) ) ;
#73 = VERTEX_POINT ( 'NONE', #1 ) ;
#74 = EDGE_CURVE ( 'NONE', #55, #11, #116, .T. ) ;
#75 = CARTESIAN_POINT ( 'NONE',  ( 0.000000000000000000, 0.000000000000000000, 3.000000000000000000 ) ) ;
#76 = DIRECTION ( 'NONE',  ( 1.000000000000000000, 0.000000000000000000, 0.000000000000000000 ) ) ;
#77 = DIRECTION ( 'NONE',  ( 0.000000000000000000, 0.000000000000000000, 1.000000000000000000 ) ) ;
#78 = PRODUCT ( 'eeb0', 'eeb0', '', ( #5 ) ) ;
#79 = PERSON_AND_ORGANIZATION ( #107, #198 ) ;
#80 = CALENDAR_DATE ( 2023, 12, 2 ) ;
#81 = AXIS2_PLACEMENT_3D ( 'NONE', #72, #20, #152 ) ;
#82 = EDGE_CURVE ( 'NONE', #217, #251, #155, .T. ) ;
#83 = PERSON_AND_ORGANIZATION ( #107, #198 ) ;
#84 = ORIENTED_EDGE ( 'NONE', *, *, #212, .T. ) ;
#85 = EDGE_LOOP ( 'NONE', ( #249, #3, #197, #244 ) ) ;
#86 = CARTESIAN_POINT ( 'NONE',  ( 0.000000000000000000, 0.000000000000000000, 100.0000000000000000 ) ) ;
#87 = ADVANCED_FACE ( 'NONE', ( #157 ), #134, .T. ) ;
#88 = ORIENTED_EDGE ( 'NONE', *, *, #54, .T. ) ;
#89 = PRODUCT_RELATED_PRODUCT_CATEGORY ( 'detail', '', ( #78 ) ) ;
#90 = CARTESIAN_POINT ( 'NONE',  ( 0.000000000000000000, 0.000000000000000000, 3.000000000000000000 ) ) ;
#91 = DIRECTION ( 'NONE',  ( 0.000000000000000000, 0.000000000000000000, 1.000000000000000000 ) ) ;
#92 = EDGE_CURVE ( 'NONE', #40, #246, #56, .T. ) ;
#93 = VERTEX_POINT ( 'NONE', #15 ) ;
#94 = FACE_OUTER_BOUND ( 'NONE', #85, .T. ) ;
#95 = CARTESIAN_POINT ( 'NONE',  ( 0.000000000000000000, 0.000000000000000000, 0.000000000000000000 ) ) ;
#96 = EDGE_CURVE ( 'NONE', #246, #251, #239, .T. ) ;
#97 = CC_DESIGN_SECURITY_CLASSIFICATION ( #114, ( #118 ) ) ;
#98 = ORIENTED_EDGE ( 'NONE', *, *, #25, .F. ) ;
#99 = COORDINATED_UNIVERSAL_TIME_OFFSET ( 1, 0, .AHEAD. ) ;
#100 = COORDINATED_UNIVERSAL_TIME_OFFSET ( 1, 0, .AHEAD. ) ;
#101 = APPLICATION_PROTOCOL_DEFINITION ( 'international standard', 'config_control_design', 1994, #253 ) ;
#102 = DIRECTION ( 'NONE',  ( -1.000000000000000000, 0.000000000000000000, 0.000000000000000000 ) ) ;
#103 = EDGE_LOOP ( 'NONE', ( #110, #64 ) ) ;
#104 =( NAMED_UNIT ( * ) PLANE_ANGLE_UNIT ( ) SI_UNIT ( $, .RADIAN. ) );
#105 = PRODUCT_DEFINITION ( 'NEZNÁMÝ', '', #118, #238 ) ;
#106 = DIRECTION ( 'NONE',  ( 1.000000000000000000, 0.000000000000000000, -0.000000000000000000 ) ) ;
#107 = PERSON ( 'NEURÈENÝ', 'NEURÈENÝ', 'NEURÈENÝ', ('NEURÈENÝ'), ('NEURÈENÝ'), ('NEURÈENÝ') ) ;
#108 = APPROVAL_STATUS ( 'not_yet_approved' ) ;
#109 = AXIS2_PLACEMENT_3D ( 'NONE', #136, #162, #50 ) ;
#110 = ORIENTED_EDGE ( 'NONE', *, *, #96, .F. ) ;
#111 = EDGE_LOOP ( 'NONE', ( #98, #84, #6, #132 ) ) ;
#112 = CARTESIAN_POINT ( 'NONE',  ( 0.000000000000000000, 0.000000000000000000, 3.000000000000000000 ) ) ;
#113 = APPROVAL ( #225, 'NEURÈENÝ' ) ;
#114 = SECURITY_CLASSIFICATION ( '', '', #35 ) ;
#115 = LOCAL_TIME ( 13, 1, 26.00000000000000000, #99 ) ;
#116 = CIRCLE ( 'NONE', #181, 4.000000000000000000 ) ;
#117 = ADVANCED_FACE ( 'NONE', ( #215 ), #175, .T. ) ;
#118 = PRODUCT_DEFINITION_FORMATION_WITH_SPECIFIED_SOURCE ( 'LIBOVOLNÝ', '', #78, .NOT_KNOWN. ) ;
#119 = AXIS2_PLACEMENT_3D ( 'NONE', #163, #139, #143 ) ;
#120 = LINE ( 'NONE', #53, #12 ) ;
#121 = DIRECTION ( 'NONE',  ( -0.000000000000000000, -0.000000000000000000, -1.000000000000000000 ) ) ;
#122 = PERSON_AND_ORGANIZATION ( #107, #198 ) ;
#123 = DIRECTION ( 'NONE',  ( 1.000000000000000000, 0.000000000000000000, 0.000000000000000000 ) ) ;
#124 = PERSON_AND_ORGANIZATION_ROLE ( 'design_supplier' ) ;
#125 = UNCERTAINTY_MEASURE_WITH_UNIT (LENGTH_MEASURE( 1.000000000000000082E-05 ), #32, 'distance_accuracy_value', 'NONE');
#126 = LINE ( 'NONE', #156, #224 ) ;
#127 = CLOSED_SHELL ( 'NONE', ( #117, #177, #229, #47, #142, #169, #87 ) ) ;
#128 = CC_DESIGN_PERSON_AND_ORGANIZATION_ASSIGNMENT ( #187, #207, ( #118 ) ) ;
#129 = COORDINATED_UNIVERSAL_TIME_OFFSET ( 1, 0, .AHEAD. ) ;
#130 = ORIENTED_EDGE ( 'NONE', *, *, #92, .T. ) ;
#131 = AXIS2_PLACEMENT_3D ( 'NONE', #86, #170, #123 ) ;
#132 = ORIENTED_EDGE ( 'NONE', *, *, #237, .F. ) ;
#133 = APPROVAL ( #108, 'NEURÈENÝ' ) ;
#134 = PLANE ( 'NONE',  #66 ) ;
#135 = VECTOR ( 'NONE', #65, 1000.000000000000000 ) ;
#136 = CARTESIAN_POINT ( 'NONE',  ( 0.000000000000000000, 0.000000000000000000, 3.000000000000000000 ) ) ;
#137 = DIRECTION ( 'NONE',  ( 1.000000000000000000, 0.000000000000000000, -0.000000000000000000 ) ) ;
#138 = APPROVAL_DATE_TIME ( #240, #21 ) ;
#139 = DIRECTION ( 'NONE',  ( 0.000000000000000000, 0.000000000000000000, 1.000000000000000000 ) ) ;
#140 = AXIS2_PLACEMENT_3D ( 'NONE', #153, #148, #59 ) ;
#141 = DATE_AND_TIME ( #69, #68 ) ;
#142 = ADVANCED_FACE ( 'NONE', ( #208 ), #252, .F. ) ;
#143 = DIRECTION ( 'NONE',  ( 1.000000000000000000, 0.000000000000000000, -0.000000000000000000 ) ) ;
#144 = ORIENTED_EDGE ( 'NONE', *, *, #82, .F. ) ;
#145 = PERSON_AND_ORGANIZATION_ROLE ( 'classification_officer' ) ;
#146 = DIRECTION ( 'NONE',  ( 0.000000000000000000, 0.000000000000000000, 1.000000000000000000 ) ) ;
#147 = AXIS2_PLACEMENT_3D ( 'NONE', #95, #28, #76 ) ;
#148 = DIRECTION ( 'NONE',  ( 0.000000000000000000, 0.000000000000000000, 1.000000000000000000 ) ) ;
#149 = ORIENTED_EDGE ( 'NONE', *, *, #61, .T. ) ;
#150 = DIRECTION ( 'NONE',  ( -0.000000000000000000, -0.000000000000000000, -1.000000000000000000 ) ) ;
#151 = CARTESIAN_POINT ( 'NONE',  ( 0.000000000000000000, 0.000000000000000000, 0.000000000000000000 ) ) ;
#152 = DIRECTION ( 'NONE',  ( -1.000000000000000000, 0.000000000000000000, 0.000000000000000000 ) ) ;
#153 = CARTESIAN_POINT ( 'NONE',  ( 0.000000000000000000, 0.000000000000000000, 100.0000000000000000 ) ) ;
#154 = ORIENTED_EDGE ( 'NONE', *, *, #74, .F. ) ;
#155 = LINE ( 'NONE', #236, #135 ) ;
#156 = CARTESIAN_POINT ( 'NONE',  ( 4.000000000000000000, 4.898587196589412829E-16, 3.000000000000000000 ) ) ;
#157 = FACE_OUTER_BOUND ( 'NONE', #17, .T. ) ;
#158 = PERSON_AND_ORGANIZATION_ROLE ( 'design_owner' ) ;
#159 = APPROVAL_DATE_TIME ( #161, #133 ) ;
#160 = FACE_OUTER_BOUND ( 'NONE', #33, .T. ) ;
#161 = DATE_AND_TIME ( #80, #189 ) ;
#162 = DIRECTION ( 'NONE',  ( 0.000000000000000000, 0.000000000000000000, 1.000000000000000000 ) ) ;
#163 = CARTESIAN_POINT ( 'NONE',  ( 0.000000000000000000, 0.000000000000000000, 3.000000000000000000 ) ) ;
#164 = VECTOR ( 'NONE', #18, 1000.000000000000000 ) ;
#165 = ORIENTED_EDGE ( 'NONE', *, *, #43, .T. ) ;
#166 = PERSON_AND_ORGANIZATION ( #107, #198 ) ;
#167 = CARTESIAN_POINT ( 'NONE',  ( 0.000000000000000000, 0.000000000000000000, 0.000000000000000000 ) ) ;
#168 = DATE_AND_TIME ( #210, #188 ) ;
#169 = ADVANCED_FACE ( 'NONE', ( #62 ), #191, .T. ) ;
#170 = DIRECTION ( 'NONE',  ( 0.000000000000000000, 0.000000000000000000, 1.000000000000000000 ) ) ;
#171 = APPROVAL_DATE_TIME ( #168, #113 ) ;
#172 = ADVANCED_BREP_SHAPE_REPRESENTATION ( 'eeb0', ( #2, #147 ), #232 ) ;
#173 = AXIS2_PLACEMENT_3D ( 'NONE', #41, #255, #37 ) ;
#174 = DIRECTION ( 'NONE',  ( 0.000000000000000000, 0.000000000000000000, 1.000000000000000000 ) ) ;
#175 = CYLINDRICAL_SURFACE ( 'NONE', #173, 2.100000000000000089 ) ;
#176 = CIRCLE ( 'NONE', #230, 4.000000000000000000 ) ;
#177 = ADVANCED_FACE ( 'NONE', ( #227 ), #231, .T. ) ;
#178 = CALENDAR_DATE ( 2023, 12, 2 ) ;
#179 = DATE_AND_TIME ( #178, #48 ) ;
#180 = EDGE_LOOP ( 'NONE', ( #144, #216, #130, #223 ) ) ;
#181 = AXIS2_PLACEMENT_3D ( 'NONE', #38, #174, #233 ) ;
#182 = DIRECTION ( 'NONE',  ( 0.000000000000000000, 0.000000000000000000, 1.000000000000000000 ) ) ;
#183 = CC_DESIGN_APPROVAL ( #21, ( #105 ) ) ;
#184 = DIRECTION ( 'NONE',  ( 1.000000000000000000, 0.000000000000000000, 0.000000000000000000 ) ) ;
#185 = ORIENTED_EDGE ( 'NONE', *, *, #25, .T. ) ;
#186 = DATE_TIME_ROLE ( 'creation_date' ) ;
#187 = PERSON_AND_ORGANIZATION ( #107, #198 ) ;
#188 = LOCAL_TIME ( 13, 1, 26.00000000000000000, #190 ) ;
#189 = LOCAL_TIME ( 13, 1, 26.00000000000000000, #129 ) ;
#190 = COORDINATED_UNIVERSAL_TIME_OFFSET ( 1, 0, .AHEAD. ) ;
#191 = CYLINDRICAL_SURFACE ( 'NONE', #81, 2.100000000000000089 ) ;
#192 = DATE_TIME_ROLE ( 'classification_date' ) ;
#193 = AXIS2_PLACEMENT_3D ( 'NONE', #90, #209, #214 ) ;
#194 = CARTESIAN_POINT ( 'NONE',  ( 0.000000000000000000, 0.000000000000000000, 3.000000000000000000 ) ) ;
#195 = CIRCLE ( 'NONE', #109, 2.100000000000000089 ) ;
#196 = ORIENTED_EDGE ( 'NONE', *, *, #16, .F. ) ;
#197 = ORIENTED_EDGE ( 'NONE', *, *, #237, .T. ) ;
#198 = ORGANIZATION ( 'NEURÈENÝ', 'NEURÈENÝ', '' ) ;
#199 = APPLICATION_PROTOCOL_DEFINITION ( 'international standard', 'config_control_design', 1994, #67 ) ;
#200 = PRODUCT_DEFINITION_SHAPE ( 'NONE', 'NONE',  #105 ) ;
#201 = AXIS2_PLACEMENT_3D ( 'NONE', #194, #150, #58 ) ;
#202 = ORIENTED_EDGE ( 'NONE', *, *, #54, .F. ) ;
#203 = CARTESIAN_POINT ( 'NONE',  ( -2.100000000000000089, 0.000000000000000000, 100.0000000000000000 ) ) ;
#204 =( NAMED_UNIT ( * ) SI_UNIT ( $, .STERADIAN. ) SOLID_ANGLE_UNIT ( ) );
#205 = CARTESIAN_POINT ( 'NONE',  ( 2.100000000000000089, 2.571758278209441464E-16, 3.000000000000000000 ) ) ;
#206 = PERSON_AND_ORGANIZATION_ROLE ( 'creator' ) ;
#207 = PERSON_AND_ORGANIZATION_ROLE ( 'creator' ) ;
#208 = FACE_OUTER_BOUND ( 'NONE', #46, .T. ) ;
#209 = DIRECTION ( 'NONE',  ( 0.000000000000000000, 0.000000000000000000, 1.000000000000000000 ) ) ;
#210 = CALENDAR_DATE ( 2023, 12, 2 ) ;
#211 = DIRECTION ( 'NONE',  ( 0.000000000000000000, 0.000000000000000000, 1.000000000000000000 ) ) ;
#212 = EDGE_CURVE ( 'NONE', #73, #11, #126, .T. ) ;
#213 = APPROVAL_ROLE ( '' ) ;
#214 = DIRECTION ( 'NONE',  ( 1.000000000000000000, 0.000000000000000000, 0.000000000000000000 ) ) ;
#215 = FACE_OUTER_BOUND ( 'NONE', #60, .T. ) ;
#216 = ORIENTED_EDGE ( 'NONE', *, *, #61, .F. ) ;
#217 = VERTEX_POINT ( 'NONE', #220 ) ;
#218 = CC_DESIGN_PERSON_AND_ORGANIZATION_ASSIGNMENT ( #70, #145, ( #114 ) ) ;
#219 = APPROVAL_PERSON_ORGANIZATION ( #44, #133, #213 ) ;
#220 = CARTESIAN_POINT ( 'NONE',  ( 2.100000000000000089, 2.571758278209441464E-16, 100.0000000000000000 ) ) ;
#221 = CARTESIAN_POINT ( 'NONE',  ( 0.000000000000000000, 0.000000000000000000, 100.0000000000000000 ) ) ;
#222 = PERSON_AND_ORGANIZATION ( #107, #198 ) ;
#223 = ORIENTED_EDGE ( 'NONE', *, *, #96, .T. ) ;
#224 = VECTOR ( 'NONE', #234, 1000.000000000000000 ) ;
#225 = APPROVAL_STATUS ( 'not_yet_approved' ) ;
#226 = CARTESIAN_POINT ( 'NONE',  ( 4.000000000000000000, 4.898587196589412829E-16, 0.000000000000000000 ) ) ;
#227 = FACE_OUTER_BOUND ( 'NONE', #111, .T. ) ;
#228 = APPROVAL_PERSON_ORGANIZATION ( #83, #21, #7 ) ;
#229 = ADVANCED_FACE ( 'NONE', ( #94 ), #26, .T. ) ;
#230 = AXIS2_PLACEMENT_3D ( 'NONE', #167, #146, #184 ) ;
#231 = CYLINDRICAL_SURFACE ( 'NONE', #201, 4.000000000000000000 ) ;
#232 =( GEOMETRIC_REPRESENTATION_CONTEXT ( 3 ) GLOBAL_UNCERTAINTY_ASSIGNED_CONTEXT ( ( #125 ) ) GLOBAL_UNIT_ASSIGNED_CONTEXT ( ( #32, #104, #204 ) ) REPRESENTATION_CONTEXT ( 'NONE', 'WORKASPACE' ) );
#233 = DIRECTION ( 'NONE',  ( 1.000000000000000000, 0.000000000000000000, 0.000000000000000000 ) ) ;
#234 = DIRECTION ( 'NONE',  ( -0.000000000000000000, -0.000000000000000000, -1.000000000000000000 ) ) ;
#235 = DIRECTION ( 'NONE',  ( 1.000000000000000000, 0.000000000000000000, 0.000000000000000000 ) ) ;
#236 = CARTESIAN_POINT ( 'NONE',  ( 2.100000000000000089, 2.571758278209441464E-16, 100.0000000000000000 ) ) ;
#237 = EDGE_CURVE ( 'NONE', #93, #55, #120, .T. ) ;
#238 = DESIGN_CONTEXT ( 'detailed design', #67, 'design' ) ;
#239 = CIRCLE ( 'NONE', #193, 2.100000000000000089 ) ;
#240 = DATE_AND_TIME ( #9, #115 ) ;
#241 = AXIS2_PLACEMENT_3D ( 'NONE', #151, #211, #106 ) ;
#242 = CC_DESIGN_DATE_AND_TIME_ASSIGNMENT ( #179, #192, ( #114 ) ) ;
#243 = CARTESIAN_POINT ( 'NONE',  ( -2.100000000000000089, 0.000000000000000000, 3.000000000000000000 ) ) ;
#244 = ORIENTED_EDGE ( 'NONE', *, *, #74, .T. ) ;
#245 = ORIENTED_EDGE ( 'NONE', *, *, #92, .F. ) ;
#246 = VERTEX_POINT ( 'NONE', #243 ) ;
#247 = CC_DESIGN_PERSON_AND_ORGANIZATION_ASSIGNMENT ( #79, #158, ( #78 ) ) ;
#248 = AXIS2_PLACEMENT_3D ( 'NONE', #42, #91, #24 ) ;
#249 = ORIENTED_EDGE ( 'NONE', *, *, #212, .F. ) ;
#250 = APPROVAL_ROLE ( '' ) ;
#251 = VERTEX_POINT ( 'NONE', #205 ) ;
#252 = PLANE ( 'NONE',  #241 ) ;
#253 = APPLICATION_CONTEXT ( 'configuration controlled 3d designs of mechanical parts and assemblies' ) ;
#254 = CIRCLE ( 'NONE', #19, 4.000000000000000000 ) ;
#255 = DIRECTION ( 'NONE',  ( -0.000000000000000000, -0.000000000000000000, -1.000000000000000000 ) ) ;
ENDSEC;
END-ISO-10303-21;
