ISO-10303-21;
HEADER;
FILE_DESCRIPTION (( 'STEP AP203' ),
    '1' );
FILE_NAME ('fb4a.STEP',
    '2022-07-07T12:48:41',
    ( '' ),
    ( '' ),
    'SwSTEP 2.0',
    'SolidWorks 2019',
    '' );
FILE_SCHEMA (( 'CONFIG_CONTROL_DESIGN' ));
ENDSEC;

DATA;
#1 = CARTESIAN_POINT ( 'NONE',  ( 0.000000000000000000, 0.000000000000000000, 103.0000000000000142 ) ) ;
#2 = CC_DESIGN_PERSON_AND_ORGANIZATION_ASSIGNMENT ( #232, #19, ( #221 ) ) ;
#3 = FACE_OUTER_BOUND ( 'NONE', #290, .T. ) ;
#4 = AXIS2_PLACEMENT_3D ( 'NONE', #190, #277, #44 ) ;
#5 = DIRECTION ( 'NONE',  ( -0.000000000000000000, -0.000000000000000000, -1.000000000000000000 ) ) ;
#6 = ORIENTED_EDGE ( 'NONE', *, *, #161, .T. ) ;
#7 = ORIENTED_EDGE ( 'NONE', *, *, #26, .T. ) ;
#8 = CIRCLE ( 'NONE', #248, 4.000000000000000000 ) ;
#9 = ADVANCED_FACE ( 'NONE', ( #130, #106 ), #30, .T. ) ;
#10 = ORIENTED_EDGE ( 'NONE', *, *, #218, .F. ) ;
#11 = ORIENTED_EDGE ( 'NONE', *, *, #17, .T. ) ;
#12 = ORIENTED_EDGE ( 'NONE', *, *, #14, .F. ) ;
#13 = DESIGN_CONTEXT ( 'detailed design', #66, 'design' ) ;
#14 = EDGE_CURVE ( 'NONE', #265, #219, #137, .T. ) ;
#15 = COORDINATED_UNIVERSAL_TIME_OFFSET ( 1, 0, .AHEAD. ) ;
#16 = LOCAL_TIME ( 14, 48, 41.00000000000000000, #223 ) ;
#17 = EDGE_CURVE ( 'NONE', #241, #154, #128, .T. ) ;
#18 = DIRECTION ( 'NONE',  ( 0.000000000000000000, 0.000000000000000000, 1.000000000000000000 ) ) ;
#19 = PERSON_AND_ORGANIZATION_ROLE ( 'design_supplier' ) ;
#20 = CARTESIAN_POINT ( 'NONE',  ( 2.250000000000000000, 2.755455298081544285E-16, 103.0000000000000142 ) ) ;
#21 = ADVANCED_FACE ( 'NONE', ( #86 ), #217, .T. ) ;
#22 = PERSON_AND_ORGANIZATION ( #52, #301 ) ;
#23 = LINE ( 'NONE', #20, #235 ) ;
#24 = DIRECTION ( 'NONE',  ( 1.000000000000000000, 0.000000000000000000, 0.000000000000000000 ) ) ;
#25 = CARTESIAN_POINT ( 'NONE',  ( 4.000000000000000000, 4.898587196589412829E-16, 3.000000000000000000 ) ) ;
#26 = EDGE_CURVE ( 'NONE', #155, #265, #214, .T. ) ;
#27 = LOCAL_TIME ( 14, 48, 41.00000000000000000, #279 ) ;
#28 = CARTESIAN_POINT ( 'NONE',  ( 0.000000000000000000, 0.000000000000000000, 3.000000000000000000 ) ) ;
#29 = ORIENTED_EDGE ( 'NONE', *, *, #257, .F. ) ;
#30 = PLANE ( 'NONE',  #299 ) ;
#31 = TOROIDAL_SURFACE ( 'NONE', #225, 2.449999999999999734, 0.2000000000000000111 ) ;
#32 = EDGE_LOOP ( 'NONE', ( #12, #109 ) ) ;
#33 = EDGE_LOOP ( 'NONE', ( #220, #197, #58, #10 ) ) ;
#34 = DIRECTION ( 'NONE',  ( 0.000000000000000000, 0.000000000000000000, 1.000000000000000000 ) ) ;
#35 = APPROVAL ( #71, 'NEURÈENÝ' ) ;
#36 = ORIENTED_EDGE ( 'NONE', *, *, #91, .T. ) ;
#37 = DIRECTION ( 'NONE',  ( -1.000000000000000000, 0.000000000000000000, 0.000000000000000000 ) ) ;
#38 = PERSON_AND_ORGANIZATION ( #52, #301 ) ;
#39 = PERSON_AND_ORGANIZATION ( #52, #301 ) ;
#40 = AXIS2_PLACEMENT_3D ( 'NONE', #124, #55, #307 ) ;
#41 = CC_DESIGN_APPROVAL ( #68, ( #178 ) ) ;
#42 = APPLICATION_PROTOCOL_DEFINITION ( 'international standard', 'config_control_design', 1994, #66 ) ;
#43 = PERSON_AND_ORGANIZATION_ROLE ( 'creator' ) ;
#44 = DIRECTION ( 'NONE',  ( 1.000000000000000000, 0.000000000000000000, 0.000000000000000000 ) ) ;
#45 = AXIS2_PLACEMENT_3D ( 'NONE', #28, #259, #125 ) ;
#46 = APPROVAL_STATUS ( 'not_yet_approved' ) ;
#47 = FACE_OUTER_BOUND ( 'NONE', #179, .T. ) ;
#48 = CIRCLE ( 'NONE', #63, 2.449999999999999734 ) ;
#49 = CIRCLE ( 'NONE', #40, 0.2000000000000000944 ) ;
#50 = AXIS2_PLACEMENT_3D ( 'NONE', #118, #293, #92 ) ;
#51 = DIRECTION ( 'NONE',  ( -0.000000000000000000, -0.000000000000000000, -1.000000000000000000 ) ) ;
#52 = PERSON ( 'NEURÈENÝ', 'NEURÈENÝ', 'NEURÈENÝ', ('NEURÈENÝ'), ('NEURÈENÝ'), ('NEURÈENÝ') ) ;
#53 = MANIFOLD_SOLID_BREP ( 'Zaoblit1', #64 ) ;
#54 = DIRECTION ( 'NONE',  ( -0.000000000000000000, -0.000000000000000000, -1.000000000000000000 ) ) ;
#55 = DIRECTION ( 'NONE',  ( 0.000000000000000000, -1.000000000000000000, 0.000000000000000000 ) ) ;
#56 = ORIENTED_EDGE ( 'NONE', *, *, #298, .T. ) ;
#57 = EDGE_LOOP ( 'NONE', ( #263, #177 ) ) ;
#58 = ORIENTED_EDGE ( 'NONE', *, *, #161, .F. ) ;
#59 = ADVANCED_FACE ( 'NONE', ( #3 ), #81, .T. ) ;
#60 = PRODUCT ( 'fb4a', 'fb4a', '', ( #252 ) ) ;
#61 = ORIENTED_EDGE ( 'NONE', *, *, #182, .T. ) ;
#62 = DIRECTION ( 'NONE',  ( 1.000000000000000000, 0.000000000000000000, -0.000000000000000000 ) ) ;
#63 = AXIS2_PLACEMENT_3D ( 'NONE', #236, #54, #102 ) ;
#64 = CLOSED_SHELL ( 'NONE', ( #140, #134, #278, #116, #9, #127, #59, #21, #268 ) ) ;
#65 =( NAMED_UNIT ( * ) PLANE_ANGLE_UNIT ( ) SI_UNIT ( $, .RADIAN. ) );
#66 = APPLICATION_CONTEXT ( 'configuration controlled 3d designs of mechanical parts and assemblies' ) ;
#67 = DIRECTION ( 'NONE',  ( 1.000000000000000000, 0.000000000000000000, 0.000000000000000000 ) ) ;
#68 = APPROVAL ( #224, 'NEURÈENÝ' ) ;
#69 = VECTOR ( 'NONE', #83, 1000.000000000000000 ) ;
#70 = CYLINDRICAL_SURFACE ( 'NONE', #205, 4.000000000000000000 ) ;
#71 = APPROVAL_STATUS ( 'not_yet_approved' ) ;
#72 = AXIS2_PLACEMENT_3D ( 'NONE', #97, #18, #67 ) ;
#73 = PERSON_AND_ORGANIZATION ( #52, #301 ) ;
#74 = DIRECTION ( 'NONE',  ( -1.000000000000000000, 0.000000000000000000, 0.000000000000000000 ) ) ;
#75 = CC_DESIGN_DATE_AND_TIME_ASSIGNMENT ( #98, #304, ( #269 ) ) ;
#76 = DATE_AND_TIME ( #141, #85 ) ;
#77 = FACE_OUTER_BOUND ( 'NONE', #32, .T. ) ;
#78 = CYLINDRICAL_SURFACE ( 'NONE', #244, 2.250000000000000000 ) ;
#79 = CALENDAR_DATE ( 2022, 7, 7 ) ;
#80 = CARTESIAN_POINT ( 'NONE',  ( -2.449999999999999734, 3.000384657911015370E-16, 3.199999999999994404 ) ) ;
#81 = CYLINDRICAL_SURFACE ( 'NONE', #142, 2.250000000000000000 ) ;
#82 = CIRCLE ( 'NONE', #4, 4.000000000000000000 ) ;
#83 = DIRECTION ( 'NONE',  ( -0.000000000000000000, -0.000000000000000000, -1.000000000000000000 ) ) ;
#84 = EDGE_CURVE ( 'NONE', #153, #219, #211, .T. ) ;
#85 = LOCAL_TIME ( 14, 48, 41.00000000000000000, #120 ) ;
#86 = FACE_OUTER_BOUND ( 'NONE', #57, .T. ) ;
#87 = VERTEX_POINT ( 'NONE', #105 ) ;
#88 = ORIENTED_EDGE ( 'NONE', *, *, #182, .F. ) ;
#89 = DIRECTION ( 'NONE',  ( 1.000000000000000000, 0.000000000000000000, -0.000000000000000000 ) ) ;
#90 = AXIS2_PLACEMENT_3D ( 'NONE', #271, #273, #139 ) ;
#91 = EDGE_CURVE ( 'NONE', #219, #265, #82, .T. ) ;
#92 = DIRECTION ( 'NONE',  ( 1.000000000000000000, 0.000000000000000000, 0.000000000000000000 ) ) ;
#93 = APPLICATION_PROTOCOL_DEFINITION ( 'international standard', 'config_control_design', 1994, #101 ) ;
#94 = APPROVAL_ROLE ( '' ) ;
#95 = CIRCLE ( 'NONE', #114, 2.250000000000000000 ) ;
#96 =( LENGTH_UNIT ( ) NAMED_UNIT ( * ) SI_UNIT ( .MILLI., .METRE. ) );
#97 = CARTESIAN_POINT ( 'NONE',  ( 0.000000000000000000, 0.000000000000000000, 3.000000000000000000 ) ) ;
#98 = DATE_AND_TIME ( #79, #27 ) ;
#99 = DIRECTION ( 'NONE',  ( 0.000000000000000000, 0.000000000000000000, 1.000000000000000000 ) ) ;
#100 = CARTESIAN_POINT ( 'NONE',  ( 0.000000000000000000, 0.000000000000000000, 103.0000000000000142 ) ) ;
#101 = APPLICATION_CONTEXT ( 'configuration controlled 3d designs of mechanical parts and assemblies' ) ;
#102 = DIRECTION ( 'NONE',  ( 1.000000000000000000, 0.000000000000000000, 0.000000000000000000 ) ) ;
#103 = CARTESIAN_POINT ( 'NONE',  ( 0.000000000000000000, 0.000000000000000000, 3.199999999999994404 ) ) ;
#104 = CIRCLE ( 'NONE', #267, 2.250000000000000000 ) ;
#105 = CARTESIAN_POINT ( 'NONE',  ( 2.250000000000000000, 2.755455298081544285E-16, 3.199999999999994404 ) ) ;
#106 = FACE_OUTER_BOUND ( 'NONE', #292, .T. ) ;
#107 = EDGE_LOOP ( 'NONE', ( #249, #288, #264, #245 ) ) ;
#108 = AXIS2_PLACEMENT_3D ( 'NONE', #80, #192, #210 ) ;
#109 = ORIENTED_EDGE ( 'NONE', *, *, #91, .F. ) ;
#110 = ORIENTED_EDGE ( 'NONE', *, *, #17, .F. ) ;
#111 = ORIENTED_EDGE ( 'NONE', *, *, #84, .T. ) ;
#112 = VECTOR ( 'NONE', #5, 1000.000000000000000 ) ;
#113 = CARTESIAN_POINT ( 'NONE',  ( 0.000000000000000000, 0.000000000000000000, 3.000000000000000000 ) ) ;
#114 = AXIS2_PLACEMENT_3D ( 'NONE', #135, #184, #165 ) ;
#115 = DIRECTION ( 'NONE',  ( 0.000000000000000000, 0.000000000000000000, 1.000000000000000000 ) ) ;
#116 = ADVANCED_FACE ( 'NONE', ( #47 ), #173, .T. ) ;
#117 = CARTESIAN_POINT ( 'NONE',  ( 0.000000000000000000, 0.000000000000000000, 3.000000000000000000 ) ) ;
#118 = CARTESIAN_POINT ( 'NONE',  ( 0.000000000000000000, 0.000000000000000000, 0.000000000000000000 ) ) ;
#119 = DIRECTION ( 'NONE',  ( 1.000000000000000000, 0.000000000000000000, 0.000000000000000000 ) ) ;
#120 = COORDINATED_UNIVERSAL_TIME_OFFSET ( 1, 0, .AHEAD. ) ;
#121 = PERSON_AND_ORGANIZATION_ROLE ( 'classification_officer' ) ;
#122 = PLANE ( 'NONE',  #215 ) ;
#123 = DIRECTION ( 'NONE',  ( -0.000000000000000000, -0.000000000000000000, -1.000000000000000000 ) ) ;
#124 = CARTESIAN_POINT ( 'NONE',  ( 2.449999999999999734, 0.000000000000000000, 3.199999999999994404 ) ) ;
#125 = DIRECTION ( 'NONE',  ( -1.000000000000000000, 0.000000000000000000, 0.000000000000000000 ) ) ;
#126 = DIRECTION ( 'NONE',  ( 0.000000000000000000, 0.000000000000000000, 1.000000000000000000 ) ) ;
#127 = ADVANCED_FACE ( 'NONE', ( #77 ), #122, .F. ) ;
#128 = LINE ( 'NONE', #131, #69 ) ;
#129 = VECTOR ( 'NONE', #300, 1000.000000000000000 ) ;
#130 = FACE_BOUND ( 'NONE', #286, .T. ) ;
#131 = CARTESIAN_POINT ( 'NONE',  ( -2.250000000000000000, 0.000000000000000000, 103.0000000000000142 ) ) ;
#132 = UNCERTAINTY_MEASURE_WITH_UNIT (LENGTH_MEASURE( 1.000000000000000082E-05 ), #96, 'distance_accuracy_value', 'NONE');
#133 = DIRECTION ( 'NONE',  ( -0.000000000000000000, -0.000000000000000000, -1.000000000000000000 ) ) ;
#134 = ADVANCED_FACE ( 'NONE', ( #207 ), #78, .T. ) ;
#135 = CARTESIAN_POINT ( 'NONE',  ( 0.000000000000000000, 0.000000000000000000, 3.199999999999994404 ) ) ;
#136 = PRODUCT_DEFINITION_SHAPE ( 'NONE', 'NONE',  #178 ) ;
#137 = CIRCLE ( 'NONE', #306, 4.000000000000000000 ) ;
#138 = DATE_AND_TIME ( #253, #181 ) ;
#139 = DIRECTION ( 'NONE',  ( 1.000000000000000000, 0.000000000000000000, 0.000000000000000000 ) ) ;
#140 = ADVANCED_FACE ( 'NONE', ( #188 ), #31, .F. ) ;
#141 = CALENDAR_DATE ( 2022, 7, 7 ) ;
#142 = AXIS2_PLACEMENT_3D ( 'NONE', #1, #51, #233 ) ;
#143 = DATE_AND_TIME ( #234, #16 ) ;
#144 = FACE_OUTER_BOUND ( 'NONE', #107, .T. ) ;
#145 = CARTESIAN_POINT ( 'NONE',  ( -2.250000000000000000, 0.000000000000000000, 3.199999999999994404 ) ) ;
#146 = AXIS2_PLACEMENT_3D ( 'NONE', #270, #133, #119 ) ;
#147 = PERSON_AND_ORGANIZATION ( #52, #301 ) ;
#148 = CC_DESIGN_PERSON_AND_ORGANIZATION_ASSIGNMENT ( #73, #43, ( #221 ) ) ;
#149 = DIRECTION ( 'NONE',  ( 0.000000000000000000, 0.000000000000000000, 1.000000000000000000 ) ) ;
#150 = DIRECTION ( 'NONE',  ( 1.000000000000000000, 0.000000000000000000, 0.000000000000000000 ) ) ;
#151 = CARTESIAN_POINT ( 'NONE',  ( -2.250000000000000000, 0.000000000000000000, 103.0000000000000142 ) ) ;
#152 = EDGE_LOOP ( 'NONE', ( #160, #111, #36, #158 ) ) ;
#153 = VERTEX_POINT ( 'NONE', #209 ) ;
#154 = VERTEX_POINT ( 'NONE', #145 ) ;
#155 = VERTEX_POINT ( 'NONE', #258 ) ;
#156 = ORIENTED_EDGE ( 'NONE', *, *, #14, .T. ) ;
#157 = CC_DESIGN_DATE_AND_TIME_ASSIGNMENT ( #186, #272, ( #178 ) ) ;
#158 = ORIENTED_EDGE ( 'NONE', *, *, #26, .F. ) ;
#159 = AXIS2_PLACEMENT_3D ( 'NONE', #222, #126, #62 ) ;
#160 = ORIENTED_EDGE ( 'NONE', *, *, #291, .F. ) ;
#161 = EDGE_CURVE ( 'NONE', #262, #198, #48, .T. ) ;
#162 = FACE_OUTER_BOUND ( 'NONE', #152, .T. ) ;
#163 = CC_DESIGN_APPROVAL ( #35, ( #221 ) ) ;
#164 =( NAMED_UNIT ( * ) SI_UNIT ( $, .STERADIAN. ) SOLID_ANGLE_UNIT ( ) );
#165 = DIRECTION ( 'NONE',  ( 1.000000000000000000, 0.000000000000000000, 0.000000000000000000 ) ) ;
#166 = APPROVAL_ROLE ( '' ) ;
#167 = APPROVAL_PERSON_ORGANIZATION ( #183, #68, #94 ) ;
#168 = SHAPE_DEFINITION_REPRESENTATION ( #136, #203 ) ;
#169 = CARTESIAN_POINT ( 'NONE',  ( 2.449999999999999734, 0.000000000000000000, 2.999999999999997335 ) ) ;
#170 = DIRECTION ( 'NONE',  ( 1.000000000000000000, 0.000000000000000000, -0.000000000000000000 ) ) ;
#171 = CIRCLE ( 'NONE', #281, 2.250000000000000000 ) ;
#172 = CC_DESIGN_APPROVAL ( #231, ( #269 ) ) ;
#173 = CYLINDRICAL_SURFACE ( 'NONE', #45, 4.000000000000000000 ) ;
#174 = CARTESIAN_POINT ( 'NONE',  ( -4.000000000000000000, 0.000000000000000000, 3.000000000000000000 ) ) ;
#175 = ORIENTED_EDGE ( 'NONE', *, *, #274, .T. ) ;
#176 = EDGE_LOOP ( 'NONE', ( #289, #61, #56, #110 ) ) ;
#177 = ORIENTED_EDGE ( 'NONE', *, *, #230, .T. ) ;
#178 = PRODUCT_DEFINITION ( 'NEZNÁMÝ', '', #221, #13 ) ;
#179 = EDGE_LOOP ( 'NONE', ( #200, #242, #7, #156 ) ) ;
#180 = DIRECTION ( 'NONE',  ( 1.000000000000000000, 0.000000000000000000, 0.000000000000000000 ) ) ;
#181 = LOCAL_TIME ( 14, 48, 41.00000000000000000, #15 ) ;
#182 = EDGE_CURVE ( 'NONE', #260, #87, #23, .T. ) ;
#183 = PERSON_AND_ORGANIZATION ( #52, #301 ) ;
#184 = DIRECTION ( 'NONE',  ( 0.000000000000000000, 0.000000000000000000, 1.000000000000000000 ) ) ;
#185 = CIRCLE ( 'NONE', #72, 4.000000000000000000 ) ;
#186 = DATE_AND_TIME ( #296, #261 ) ;
#187 = PERSON_AND_ORGANIZATION_ROLE ( 'design_owner' ) ;
#188 = FACE_OUTER_BOUND ( 'NONE', #33, .T. ) ;
#189 = APPROVAL_PERSON_ORGANIZATION ( #39, #35, #166 ) ;
#190 = CARTESIAN_POINT ( 'NONE',  ( 0.000000000000000000, 0.000000000000000000, 0.000000000000000000 ) ) ;
#191 = CARTESIAN_POINT ( 'NONE',  ( 4.000000000000000000, 4.898587196589412829E-16, 0.000000000000000000 ) ) ;
#192 = DIRECTION ( 'NONE',  ( 1.224646799147353207E-16, 1.000000000000000000, -0.000000000000000000 ) ) ;
#193 = CIRCLE ( 'NONE', #228, 2.250000000000000000 ) ;
#194 = CARTESIAN_POINT ( 'NONE',  ( 0.000000000000000000, 0.000000000000000000, 0.000000000000000000 ) ) ;
#195 = EDGE_CURVE ( 'NONE', #154, #198, #295, .T. ) ;
#196 = CARTESIAN_POINT ( 'NONE',  ( 0.000000000000000000, 0.000000000000000000, 3.000000000000000000 ) ) ;
#197 = ORIENTED_EDGE ( 'NONE', *, *, #195, .T. ) ;
#198 = VERTEX_POINT ( 'NONE', #305 ) ;
#199 = DIRECTION ( 'NONE',  ( 0.000000000000000000, 0.000000000000000000, 1.000000000000000000 ) ) ;
#200 = ORIENTED_EDGE ( 'NONE', *, *, #84, .F. ) ;
#201 = CC_DESIGN_SECURITY_CLASSIFICATION ( #269, ( #221 ) ) ;
#202 = DIRECTION ( 'NONE',  ( 1.000000000000000000, 0.000000000000000000, 0.000000000000000000 ) ) ;
#203 = ADVANCED_BREP_SHAPE_REPRESENTATION ( 'fb4a', ( #53, #50 ), #275 ) ;
#204 = CC_DESIGN_PERSON_AND_ORGANIZATION_ASSIGNMENT ( #229, #227, ( #178 ) ) ;
#205 = AXIS2_PLACEMENT_3D ( 'NONE', #117, #250, #37 ) ;
#206 = COORDINATED_UNIVERSAL_TIME_OFFSET ( 1, 0, .AHEAD. ) ;
#207 = FACE_OUTER_BOUND ( 'NONE', #176, .T. ) ;
#208 = APPROVAL_DATE_TIME ( #76, #231 ) ;
#209 = CARTESIAN_POINT ( 'NONE',  ( 4.000000000000000000, 4.898587196589412829E-16, 3.000000000000000000 ) ) ;
#210 = DIRECTION ( 'NONE',  ( -1.000000000000000000, 1.224646799147353207E-16, 0.000000000000000000 ) ) ;
#211 = LINE ( 'NONE', #25, #129 ) ;
#212 = CARTESIAN_POINT ( 'NONE',  ( 2.250000000000000000, 2.755455298081544285E-16, 103.0000000000000142 ) ) ;
#213 = TOROIDAL_SURFACE ( 'NONE', #90, 2.449999999999999734, 0.2000000000000000111 ) ;
#214 = LINE ( 'NONE', #174, #112 ) ;
#215 = AXIS2_PLACEMENT_3D ( 'NONE', #194, #149, #170 ) ;
#216 = ORIENTED_EDGE ( 'NONE', *, *, #303, .T. ) ;
#217 = PLANE ( 'NONE',  #159 ) ;
#218 = EDGE_CURVE ( 'NONE', #87, #262, #49, .T. ) ;
#219 = VERTEX_POINT ( 'NONE', #191 ) ;
#220 = ORIENTED_EDGE ( 'NONE', *, *, #243, .F. ) ;
#221 = PRODUCT_DEFINITION_FORMATION_WITH_SPECIFIED_SOURCE ( 'LIBOVOLNÝ', '', #60, .NOT_KNOWN. ) ;
#222 = CARTESIAN_POINT ( 'NONE',  ( 0.000000000000000000, 0.000000000000000000, 103.0000000000000142 ) ) ;
#223 = COORDINATED_UNIVERSAL_TIME_OFFSET ( 1, 0, .AHEAD. ) ;
#224 = APPROVAL_STATUS ( 'not_yet_approved' ) ;
#225 = AXIS2_PLACEMENT_3D ( 'NONE', #103, #238, #256 ) ;
#226 = CC_DESIGN_PERSON_AND_ORGANIZATION_ASSIGNMENT ( #38, #187, ( #60 ) ) ;
#227 = PERSON_AND_ORGANIZATION_ROLE ( 'creator' ) ;
#228 = AXIS2_PLACEMENT_3D ( 'NONE', #284, #99, #150 ) ;
#229 = PERSON_AND_ORGANIZATION ( #52, #301 ) ;
#230 = EDGE_CURVE ( 'NONE', #260, #241, #171, .T. ) ;
#231 = APPROVAL ( #46, 'NEURÈENÝ' ) ;
#232 = PERSON_AND_ORGANIZATION ( #52, #301 ) ;
#233 = DIRECTION ( 'NONE',  ( -1.000000000000000000, 0.000000000000000000, 0.000000000000000000 ) ) ;
#234 = CALENDAR_DATE ( 2022, 7, 7 ) ;
#235 = VECTOR ( 'NONE', #123, 1000.000000000000000 ) ;
#236 = CARTESIAN_POINT ( 'NONE',  ( 0.000000000000000000, 0.000000000000000000, 3.000000000000000000 ) ) ;
#237 = APPROVAL_ROLE ( '' ) ;
#238 = DIRECTION ( 'NONE',  ( 0.000000000000000000, 0.000000000000000000, 1.000000000000000000 ) ) ;
#239 = DIRECTION ( 'NONE',  ( -0.000000000000000000, -0.000000000000000000, -1.000000000000000000 ) ) ;
#240 = CARTESIAN_POINT ( 'NONE',  ( 0.000000000000000000, 0.000000000000000000, 103.0000000000000142 ) ) ;
#241 = VERTEX_POINT ( 'NONE', #151 ) ;
#242 = ORIENTED_EDGE ( 'NONE', *, *, #303, .F. ) ;
#243 = EDGE_CURVE ( 'NONE', #154, #87, #193, .T. ) ;
#244 = AXIS2_PLACEMENT_3D ( 'NONE', #100, #239, #74 ) ;
#245 = ORIENTED_EDGE ( 'NONE', *, *, #274, .F. ) ;
#246 = ORIENTED_EDGE ( 'NONE', *, *, #243, .T. ) ;
#247 = CARTESIAN_POINT ( 'NONE',  ( 0.000000000000000000, 0.000000000000000000, 0.000000000000000000 ) ) ;
#248 = AXIS2_PLACEMENT_3D ( 'NONE', #113, #115, #202 ) ;
#249 = ORIENTED_EDGE ( 'NONE', *, *, #195, .F. ) ;
#250 = DIRECTION ( 'NONE',  ( -0.000000000000000000, -0.000000000000000000, -1.000000000000000000 ) ) ;
#251 = CIRCLE ( 'NONE', #146, 2.449999999999999734 ) ;
#252 = MECHANICAL_CONTEXT ( 'NONE', #101, 'mechanical' ) ;
#253 = CALENDAR_DATE ( 2022, 7, 7 ) ;
#254 = APPROVAL_DATE_TIME ( #143, #35 ) ;
#255 = CARTESIAN_POINT ( 'NONE',  ( -4.000000000000000000, 0.000000000000000000, 0.000000000000000000 ) ) ;
#256 = DIRECTION ( 'NONE',  ( 1.000000000000000000, 0.000000000000000000, 0.000000000000000000 ) ) ;
#257 = EDGE_CURVE ( 'NONE', #241, #260, #104, .T. ) ;
#258 = CARTESIAN_POINT ( 'NONE',  ( -4.000000000000000000, 0.000000000000000000, 3.000000000000000000 ) ) ;
#259 = DIRECTION ( 'NONE',  ( -0.000000000000000000, -0.000000000000000000, -1.000000000000000000 ) ) ;
#260 = VERTEX_POINT ( 'NONE', #212 ) ;
#261 = LOCAL_TIME ( 14, 48, 41.00000000000000000, #206 ) ;
#262 = VERTEX_POINT ( 'NONE', #169 ) ;
#263 = ORIENTED_EDGE ( 'NONE', *, *, #257, .T. ) ;
#264 = ORIENTED_EDGE ( 'NONE', *, *, #218, .T. ) ;
#265 = VERTEX_POINT ( 'NONE', #255 ) ;
#266 = PRODUCT_RELATED_PRODUCT_CATEGORY ( 'detail', '', ( #60 ) ) ;
#267 = AXIS2_PLACEMENT_3D ( 'NONE', #285, #276, #302 ) ;
#268 = ADVANCED_FACE ( 'NONE', ( #144 ), #213, .F. ) ;
#269 = SECURITY_CLASSIFICATION ( '', '', #282 ) ;
#270 = CARTESIAN_POINT ( 'NONE',  ( 0.000000000000000000, 0.000000000000000000, 3.000000000000000000 ) ) ;
#271 = CARTESIAN_POINT ( 'NONE',  ( 0.000000000000000000, 0.000000000000000000, 3.199999999999994404 ) ) ;
#272 = DATE_TIME_ROLE ( 'creation_date' ) ;
#273 = DIRECTION ( 'NONE',  ( 0.000000000000000000, 0.000000000000000000, 1.000000000000000000 ) ) ;
#274 = EDGE_CURVE ( 'NONE', #198, #262, #251, .T. ) ;
#275 =( GEOMETRIC_REPRESENTATION_CONTEXT ( 3 ) GLOBAL_UNCERTAINTY_ASSIGNED_CONTEXT ( ( #132 ) ) GLOBAL_UNIT_ASSIGNED_CONTEXT ( ( #96, #65, #164 ) ) REPRESENTATION_CONTEXT ( 'NONE', 'WORKASPACE' ) );
#276 = DIRECTION ( 'NONE',  ( 0.000000000000000000, 0.000000000000000000, 1.000000000000000000 ) ) ;
#277 = DIRECTION ( 'NONE',  ( 0.000000000000000000, 0.000000000000000000, 1.000000000000000000 ) ) ;
#278 = ADVANCED_FACE ( 'NONE', ( #162 ), #70, .T. ) ;
#279 = COORDINATED_UNIVERSAL_TIME_OFFSET ( 1, 0, .AHEAD. ) ;
#280 = DIRECTION ( 'NONE',  ( 0.000000000000000000, 0.000000000000000000, 1.000000000000000000 ) ) ;
#281 = AXIS2_PLACEMENT_3D ( 'NONE', #240, #280, #24 ) ;
#282 = SECURITY_CLASSIFICATION_LEVEL ( 'unclassified' ) ;
#283 = APPROVAL_PERSON_ORGANIZATION ( #22, #231, #237 ) ;
#284 = CARTESIAN_POINT ( 'NONE',  ( 0.000000000000000000, 0.000000000000000000, 3.199999999999994404 ) ) ;
#285 = CARTESIAN_POINT ( 'NONE',  ( 0.000000000000000000, 0.000000000000000000, 103.0000000000000142 ) ) ;
#286 = EDGE_LOOP ( 'NONE', ( #6, #175 ) ) ;
#287 = ORIENTED_EDGE ( 'NONE', *, *, #291, .T. ) ;
#288 = ORIENTED_EDGE ( 'NONE', *, *, #298, .F. ) ;
#289 = ORIENTED_EDGE ( 'NONE', *, *, #230, .F. ) ;
#290 = EDGE_LOOP ( 'NONE', ( #88, #29, #11, #246 ) ) ;
#291 = EDGE_CURVE ( 'NONE', #153, #155, #8, .T. ) ;
#292 = EDGE_LOOP ( 'NONE', ( #216, #287 ) ) ;
#293 = DIRECTION ( 'NONE',  ( 0.000000000000000000, 0.000000000000000000, 1.000000000000000000 ) ) ;
#294 = APPROVAL_DATE_TIME ( #138, #68 ) ;
#295 = CIRCLE ( 'NONE', #108, 0.2000000000000000944 ) ;
#296 = CALENDAR_DATE ( 2022, 7, 7 ) ;
#297 = CC_DESIGN_PERSON_AND_ORGANIZATION_ASSIGNMENT ( #147, #121, ( #269 ) ) ;
#298 = EDGE_CURVE ( 'NONE', #87, #154, #95, .T. ) ;
#299 = AXIS2_PLACEMENT_3D ( 'NONE', #196, #199, #89 ) ;
#300 = DIRECTION ( 'NONE',  ( -0.000000000000000000, -0.000000000000000000, -1.000000000000000000 ) ) ;
#301 = ORGANIZATION ( 'NEURÈENÝ', 'NEURÈENÝ', '' ) ;
#302 = DIRECTION ( 'NONE',  ( 1.000000000000000000, 0.000000000000000000, 0.000000000000000000 ) ) ;
#303 = EDGE_CURVE ( 'NONE', #155, #153, #185, .T. ) ;
#304 = DATE_TIME_ROLE ( 'classification_date' ) ;
#305 = CARTESIAN_POINT ( 'NONE',  ( -2.449999999999999734, 3.000384657911015370E-16, 2.999999999999997335 ) ) ;
#306 = AXIS2_PLACEMENT_3D ( 'NONE', #247, #34, #180 ) ;
#307 = DIRECTION ( 'NONE',  ( 0.000000000000000000, 0.000000000000000000, -1.000000000000000000 ) ) ;
ENDSEC;
END-ISO-10303-21;
