ISO-10303-21;
HEADER;
FILE_DESCRIPTION (( 'STEP AP203' ),
    '1' );
FILE_NAME ('aa1b.STEP',
    '2022-07-07T12:26:13',
    ( '' ),
    ( '' ),
    'SwSTEP 2.0',
    'SolidWorks 2019',
    '' );
FILE_SCHEMA (( 'CONFIG_CONTROL_DESIGN' ));
ENDSEC;

DATA;
#1 = DIRECTION ( 'NONE',  ( -0.000000000000000000, -0.000000000000000000, -1.000000000000000000 ) ) ;
#2 = PRODUCT_RELATED_PRODUCT_CATEGORY ( 'detail', '', ( #278 ) ) ;
#3 = DIRECTION ( 'NONE',  ( 0.000000000000000000, 0.000000000000000000, 1.000000000000000000 ) ) ;
#4 = PERSON_AND_ORGANIZATION ( #83, #284 ) ;
#5 = UNCERTAINTY_MEASURE_WITH_UNIT (LENGTH_MEASURE( 1.000000000000000082E-05 ), #107, 'distance_accuracy_value', 'NONE');
#6 = VERTEX_POINT ( 'NONE', #162 ) ;
#7 = APPROVAL_DATE_TIME ( #35, #65 ) ;
#8 = ORIENTED_EDGE ( 'NONE', *, *, #286, .T. ) ;
#9 = EDGE_CURVE ( 'NONE', #272, #68, #20, .T. ) ;
#10 = CALENDAR_DATE ( 2022, 7, 7 ) ;
#11 = TOROIDAL_SURFACE ( 'NONE', #165, 5.299999999999998934, 0.2000000000000000111 ) ;
#12 = DATE_AND_TIME ( #246, #306 ) ;
#13 = EDGE_CURVE ( 'NONE', #6, #186, #127, .T. ) ;
#14 = VERTEX_POINT ( 'NONE', #236 ) ;
#15 = CLOSED_SHELL ( 'NONE', ( #153, #133, #305, #158, #125, #157, #191, #214, #265 ) ) ;
#16 = CARTESIAN_POINT ( 'NONE',  ( 0.000000000000000000, 0.000000000000000000, 5.000000000000000000 ) ) ;
#17 = DIRECTION ( 'NONE',  ( -0.000000000000000000, -0.000000000000000000, -1.000000000000000000 ) ) ;
#18 = CARTESIAN_POINT ( 'NONE',  ( 0.000000000000000000, 0.000000000000000000, 5.000000000000000000 ) ) ;
#19 = CARTESIAN_POINT ( 'NONE',  ( 0.000000000000000000, 0.000000000000000000, 405.0000000000000000 ) ) ;
#20 = CIRCLE ( 'NONE', #44, 8.000000000000000000 ) ;
#21 = AXIS2_PLACEMENT_3D ( 'NONE', #264, #52, #287 ) ;
#22 = ORIENTED_EDGE ( 'NONE', *, *, #175, .F. ) ;
#23 = CARTESIAN_POINT ( 'NONE',  ( 0.000000000000000000, 0.000000000000000000, 0.000000000000000000 ) ) ;
#24 = CARTESIAN_POINT ( 'NONE',  ( 0.000000000000000000, 0.000000000000000000, 0.000000000000000000 ) ) ;
#25 = CARTESIAN_POINT ( 'NONE',  ( 0.000000000000000000, 0.000000000000000000, 5.199999999999982414 ) ) ;
#26 = CARTESIAN_POINT ( 'NONE',  ( 0.000000000000000000, 0.000000000000000000, 5.000000000000000000 ) ) ;
#27 = CARTESIAN_POINT ( 'NONE',  ( 5.099999999999999645, 6.245698675651500839E-16, 5.199999999999982414 ) ) ;
#28 = AXIS2_PLACEMENT_3D ( 'NONE', #26, #72, #124 ) ;
#29 = DIRECTION ( 'NONE',  ( 0.000000000000000000, 0.000000000000000000, 1.000000000000000000 ) ) ;
#30 = COORDINATED_UNIVERSAL_TIME_OFFSET ( 1, 0, .AHEAD. ) ;
#31 = DIRECTION ( 'NONE',  ( 1.000000000000000000, 0.000000000000000000, 0.000000000000000000 ) ) ;
#32 = VERTEX_POINT ( 'NONE', #231 ) ;
#33 =( NAMED_UNIT ( * ) PLANE_ANGLE_UNIT ( ) SI_UNIT ( $, .RADIAN. ) );
#34 = AXIS2_PLACEMENT_3D ( 'NONE', #24, #172, #143 ) ;
#35 = DATE_AND_TIME ( #10, #245 ) ;
#36 = CARTESIAN_POINT ( 'NONE',  ( 0.000000000000000000, 0.000000000000000000, 5.000000000000000000 ) ) ;
#37 = AXIS2_PLACEMENT_3D ( 'NONE', #36, #88, #113 ) ;
#38 = AXIS2_PLACEMENT_3D ( 'NONE', #240, #74, #304 ) ;
#39 = CYLINDRICAL_SURFACE ( 'NONE', #140, 5.099999999999999645 ) ;
#40 = ORIENTED_EDGE ( 'NONE', *, *, #105, .T. ) ;
#41 = ORIENTED_EDGE ( 'NONE', *, *, #9, .T. ) ;
#42 = DIRECTION ( 'NONE',  ( 1.224646799147353207E-16, 1.000000000000000000, -0.000000000000000000 ) ) ;
#43 = CC_DESIGN_PERSON_AND_ORGANIZATION_ASSIGNMENT ( #4, #273, ( #201 ) ) ;
#44 = AXIS2_PLACEMENT_3D ( 'NONE', #18, #302, #255 ) ;
#45 = AXIS2_PLACEMENT_3D ( 'NONE', #262, #47, #144 ) ;
#46 = EDGE_CURVE ( 'NONE', #60, #186, #174, .T. ) ;
#47 = DIRECTION ( 'NONE',  ( -0.000000000000000000, -0.000000000000000000, -1.000000000000000000 ) ) ;
#48 = DIRECTION ( 'NONE',  ( 1.000000000000000000, 0.000000000000000000, -0.000000000000000000 ) ) ;
#49 = CARTESIAN_POINT ( 'NONE',  ( -5.299999999999998934, 6.490628035480970938E-16, 4.999999999999991118 ) ) ;
#50 = AXIS2_PLACEMENT_3D ( 'NONE', #218, #192, #146 ) ;
#51 = FACE_OUTER_BOUND ( 'NONE', #92, .T. ) ;
#52 = DIRECTION ( 'NONE',  ( 0.000000000000000000, 0.000000000000000000, 1.000000000000000000 ) ) ;
#53 = PERSON_AND_ORGANIZATION ( #83, #284 ) ;
#54 = EDGE_LOOP ( 'NONE', ( #232, #40 ) ) ;
#55 = EDGE_CURVE ( 'NONE', #68, #272, #301, .T. ) ;
#56 =( GEOMETRIC_REPRESENTATION_CONTEXT ( 3 ) GLOBAL_UNCERTAINTY_ASSIGNED_CONTEXT ( ( #5 ) ) GLOBAL_UNIT_ASSIGNED_CONTEXT ( ( #107, #33, #202 ) ) REPRESENTATION_CONTEXT ( 'NONE', 'WORKASPACE' ) );
#57 = APPROVAL_STATUS ( 'not_yet_approved' ) ;
#58 = ORIENTED_EDGE ( 'NONE', *, *, #46, .T. ) ;
#59 = PERSON_AND_ORGANIZATION_ROLE ( 'creator' ) ;
#60 = VERTEX_POINT ( 'NONE', #64 ) ;
#61 = DATE_TIME_ROLE ( 'creation_date' ) ;
#62 = LOCAL_TIME ( 14, 26, 13.00000000000000000, #156 ) ;
#63 = CARTESIAN_POINT ( 'NONE',  ( 0.000000000000000000, 0.000000000000000000, 405.0000000000000000 ) ) ;
#64 = CARTESIAN_POINT ( 'NONE',  ( 5.299999999999998934, 0.000000000000000000, 4.999999999999991118 ) ) ;
#65 = APPROVAL ( #173, 'NEURÈENÝ' ) ;
#66 = APPROVAL_PERSON_ORGANIZATION ( #85, #91, #294 ) ;
#67 = ORIENTED_EDGE ( 'NONE', *, *, #296, .F. ) ;
#68 = VERTEX_POINT ( 'NONE', #300 ) ;
#69 = EDGE_CURVE ( 'NONE', #32, #6, #209, .T. ) ;
#70 = FACE_BOUND ( 'NONE', #132, .T. ) ;
#71 = CC_DESIGN_PERSON_AND_ORGANIZATION_ASSIGNMENT ( #154, #244, ( #278 ) ) ;
#72 = DIRECTION ( 'NONE',  ( -0.000000000000000000, -0.000000000000000000, -1.000000000000000000 ) ) ;
#73 = FACE_OUTER_BOUND ( 'NONE', #279, .T. ) ;
#74 = DIRECTION ( 'NONE',  ( 0.000000000000000000, 0.000000000000000000, 1.000000000000000000 ) ) ;
#75 = FACE_OUTER_BOUND ( 'NONE', #54, .T. ) ;
#76 = CARTESIAN_POINT ( 'NONE',  ( 0.000000000000000000, 0.000000000000000000, 405.0000000000000000 ) ) ;
#77 = CIRCLE ( 'NONE', #50, 0.1999999999999996503 ) ;
#78 = SECURITY_CLASSIFICATION_LEVEL ( 'unclassified' ) ;
#79 = ORIENTED_EDGE ( 'NONE', *, *, #13, .T. ) ;
#80 = DESIGN_CONTEXT ( 'detailed design', #167, 'design' ) ;
#81 = CC_DESIGN_PERSON_AND_ORGANIZATION_ASSIGNMENT ( #106, #199, ( #188 ) ) ;
#82 = PERSON_AND_ORGANIZATION ( #83, #284 ) ;
#83 = PERSON ( 'NEURÈENÝ', 'NEURÈENÝ', 'NEURÈENÝ', ('NEURÈENÝ'), ('NEURÈENÝ'), ('NEURÈENÝ') ) ;
#84 = EDGE_LOOP ( 'NONE', ( #271, #114, #163, #247 ) ) ;
#85 = PERSON_AND_ORGANIZATION ( #83, #284 ) ;
#86 = AXIS2_PLACEMENT_3D ( 'NONE', #90, #185, #160 ) ;
#87 = PRODUCT_DEFINITION_FORMATION_WITH_SPECIFIED_SOURCE ( 'LIBOVOLNÝ', '', #278, .NOT_KNOWN. ) ;
#88 = DIRECTION ( 'NONE',  ( 0.000000000000000000, 0.000000000000000000, 1.000000000000000000 ) ) ;
#89 = APPLICATION_CONTEXT ( 'configuration controlled 3d designs of mechanical parts and assemblies' ) ;
#90 = CARTESIAN_POINT ( 'NONE',  ( 0.000000000000000000, 0.000000000000000000, 5.000000000000000000 ) ) ;
#91 = APPROVAL ( #57, 'NEURÈENÝ' ) ;
#92 = EDGE_LOOP ( 'NONE', ( #176, #267, #212, #229 ) ) ;
#93 = APPROVAL_PERSON_ORGANIZATION ( #53, #280, #177 ) ;
#94 = ORIENTED_EDGE ( 'NONE', *, *, #213, .T. ) ;
#95 = EDGE_CURVE ( 'NONE', #272, #276, #258, .T. ) ;
#96 = DIRECTION ( 'NONE',  ( -0.000000000000000000, -0.000000000000000000, -1.000000000000000000 ) ) ;
#97 = LINE ( 'NONE', #303, #122 ) ;
#98 = CYLINDRICAL_SURFACE ( 'NONE', #235, 8.000000000000000000 ) ;
#99 = CC_DESIGN_SECURITY_CLASSIFICATION ( #188, ( #87 ) ) ;
#100 = CARTESIAN_POINT ( 'NONE',  ( 0.000000000000000000, 0.000000000000000000, 5.199999999999982414 ) ) ;
#101 = CARTESIAN_POINT ( 'NONE',  ( 0.000000000000000000, 0.000000000000000000, 0.000000000000000000 ) ) ;
#102 = DIRECTION ( 'NONE',  ( 1.000000000000000000, 0.000000000000000000, 0.000000000000000000 ) ) ;
#103 = VECTOR ( 'NONE', #17, 1000.000000000000000 ) ;
#104 = EDGE_CURVE ( 'NONE', #32, #225, #171, .T. ) ;
#105 = EDGE_CURVE ( 'NONE', #225, #32, #274, .T. ) ;
#106 = PERSON_AND_ORGANIZATION ( #83, #284 ) ;
#107 =( LENGTH_UNIT ( ) NAMED_UNIT ( * ) SI_UNIT ( .MILLI., .METRE. ) );
#108 = EDGE_LOOP ( 'NONE', ( #200, #269, #149, #137 ) ) ;
#109 = DATE_AND_TIME ( #291, #230 ) ;
#110 = EDGE_LOOP ( 'NONE', ( #118, #79, #155, #67 ) ) ;
#111 = LOCAL_TIME ( 14, 26, 13.00000000000000000, #270 ) ;
#112 = EDGE_CURVE ( 'NONE', #68, #14, #252, .T. ) ;
#113 = DIRECTION ( 'NONE',  ( 1.000000000000000000, 0.000000000000000000, 0.000000000000000000 ) ) ;
#114 = ORIENTED_EDGE ( 'NONE', *, *, #9, .F. ) ;
#115 = DIRECTION ( 'NONE',  ( -1.000000000000000000, 1.224646799147353454E-16, 0.000000000000000000 ) ) ;
#116 = AXIS2_PLACEMENT_3D ( 'NONE', #23, #169, #48 ) ;
#117 = DIRECTION ( 'NONE',  ( 1.000000000000000000, 0.000000000000000000, 0.000000000000000000 ) ) ;
#118 = ORIENTED_EDGE ( 'NONE', *, *, #221, .F. ) ;
#119 = DIRECTION ( 'NONE',  ( -0.000000000000000000, -0.000000000000000000, -1.000000000000000000 ) ) ;
#120 = PLANE ( 'NONE',  #21 ) ;
#121 = VECTOR ( 'NONE', #299, 1000.000000000000000 ) ;
#122 = VECTOR ( 'NONE', #1, 1000.000000000000000 ) ;
#123 = CARTESIAN_POINT ( 'NONE',  ( -8.000000000000000000, 0.000000000000000000, 5.000000000000000000 ) ) ;
#124 = DIRECTION ( 'NONE',  ( -1.000000000000000000, 0.000000000000000000, 0.000000000000000000 ) ) ;
#125 = ADVANCED_FACE ( 'NONE', ( #70, #208 ), #190, .T. ) ;
#126 = CARTESIAN_POINT ( 'NONE',  ( -8.000000000000000000, 0.000000000000000000, 0.000000000000000000 ) ) ;
#127 = CIRCLE ( 'NONE', #234, 0.1999999999999996503 ) ;
#128 = CIRCLE ( 'NONE', #288, 8.000000000000000000 ) ;
#129 = APPROVAL_DATE_TIME ( #109, #91 ) ;
#130 = PERSON_AND_ORGANIZATION ( #83, #284 ) ;
#131 = APPLICATION_PROTOCOL_DEFINITION ( 'international standard', 'config_control_design', 1994, #167 ) ;
#132 = EDGE_LOOP ( 'NONE', ( #58, #161 ) ) ;
#133 = ADVANCED_FACE ( 'NONE', ( #282 ), #39, .T. ) ;
#134 = EDGE_CURVE ( 'NONE', #186, #60, #164, .T. ) ;
#135 = CARTESIAN_POINT ( 'NONE',  ( 8.000000000000000000, 9.797174393178825657E-16, 5.000000000000000000 ) ) ;
#136 = ORIENTED_EDGE ( 'NONE', *, *, #13, .F. ) ;
#137 = ORIENTED_EDGE ( 'NONE', *, *, #95, .F. ) ;
#138 = EDGE_LOOP ( 'NONE', ( #223, #8, #94, #178 ) ) ;
#139 = AXIS2_PLACEMENT_3D ( 'NONE', #19, #159, #117 ) ;
#140 = AXIS2_PLACEMENT_3D ( 'NONE', #76, #238, #168 ) ;
#141 = DIRECTION ( 'NONE',  ( 1.000000000000000000, 0.000000000000000000, 0.000000000000000000 ) ) ;
#142 = CC_DESIGN_DATE_AND_TIME_ASSIGNMENT ( #224, #204, ( #188 ) ) ;
#143 = DIRECTION ( 'NONE',  ( 1.000000000000000000, 0.000000000000000000, 0.000000000000000000 ) ) ;
#144 = DIRECTION ( 'NONE',  ( 1.000000000000000000, 0.000000000000000000, 0.000000000000000000 ) ) ;
#145 = CC_DESIGN_APPROVAL ( #91, ( #201 ) ) ;
#146 = DIRECTION ( 'NONE',  ( 0.000000000000000000, 0.000000000000000000, -1.000000000000000000 ) ) ;
#147 = DIRECTION ( 'NONE',  ( 0.000000000000000000, 0.000000000000000000, 1.000000000000000000 ) ) ;
#148 = APPROVAL_STATUS ( 'not_yet_approved' ) ;
#149 = ORIENTED_EDGE ( 'NONE', *, *, #175, .T. ) ;
#150 = CC_DESIGN_APPROVAL ( #65, ( #87 ) ) ;
#151 = MECHANICAL_CONTEXT ( 'NONE', #89, 'mechanical' ) ;
#152 = ORIENTED_EDGE ( 'NONE', *, *, #55, .T. ) ;
#153 = ADVANCED_FACE ( 'NONE', ( #219 ), #256, .F. ) ;
#154 = PERSON_AND_ORGANIZATION ( #83, #284 ) ;
#155 = ORIENTED_EDGE ( 'NONE', *, *, #46, .F. ) ;
#156 = COORDINATED_UNIVERSAL_TIME_OFFSET ( 1, 0, .AHEAD. ) ;
#157 = ADVANCED_FACE ( 'NONE', ( #307 ), #263, .F. ) ;
#158 = ADVANCED_FACE ( 'NONE', ( #198 ), #98, .T. ) ;
#159 = DIRECTION ( 'NONE',  ( 0.000000000000000000, 0.000000000000000000, 1.000000000000000000 ) ) ;
#160 = DIRECTION ( 'NONE',  ( 1.000000000000000000, 0.000000000000000000, -0.000000000000000000 ) ) ;
#161 = ORIENTED_EDGE ( 'NONE', *, *, #134, .T. ) ;
#162 = CARTESIAN_POINT ( 'NONE',  ( -5.099999999999999645, 0.000000000000000000, 5.199999999999982414 ) ) ;
#163 = ORIENTED_EDGE ( 'NONE', *, *, #95, .T. ) ;
#164 = CIRCLE ( 'NONE', #45, 5.299999999999998934 ) ;
#165 = AXIS2_PLACEMENT_3D ( 'NONE', #25, #147, #170 ) ;
#166 = DIRECTION ( 'NONE',  ( -1.000000000000000000, 0.000000000000000000, 0.000000000000000000 ) ) ;
#167 = APPLICATION_CONTEXT ( 'configuration controlled 3d designs of mechanical parts and assemblies' ) ;
#168 = DIRECTION ( 'NONE',  ( -1.000000000000000000, 0.000000000000000000, 0.000000000000000000 ) ) ;
#169 = DIRECTION ( 'NONE',  ( 0.000000000000000000, 0.000000000000000000, 1.000000000000000000 ) ) ;
#170 = DIRECTION ( 'NONE',  ( 1.000000000000000000, 0.000000000000000000, 0.000000000000000000 ) ) ;
#171 = CIRCLE ( 'NONE', #211, 5.099999999999999645 ) ;
#172 = DIRECTION ( 'NONE',  ( 0.000000000000000000, 0.000000000000000000, 1.000000000000000000 ) ) ;
#173 = APPROVAL_STATUS ( 'not_yet_approved' ) ;
#174 = CIRCLE ( 'NONE', #187, 5.299999999999998934 ) ;
#175 = EDGE_CURVE ( 'NONE', #14, #276, #194, .T. ) ;
#176 = ORIENTED_EDGE ( 'NONE', *, *, #286, .F. ) ;
#177 = APPROVAL_ROLE ( '' ) ;
#178 = ORIENTED_EDGE ( 'NONE', *, *, #69, .F. ) ;
#179 = COORDINATED_UNIVERSAL_TIME_OFFSET ( 1, 0, .AHEAD. ) ;
#180 = EDGE_CURVE ( 'NONE', #276, #14, #128, .T. ) ;
#181 = ORIENTED_EDGE ( 'NONE', *, *, #180, .F. ) ;
#182 = VECTOR ( 'NONE', #96, 1000.000000000000000 ) ;
#183 = AXIS2_PLACEMENT_3D ( 'NONE', #100, #3, #141 ) ;
#184 = CARTESIAN_POINT ( 'NONE',  ( -5.099999999999999645, 0.000000000000000000, 405.0000000000000000 ) ) ;
#185 = DIRECTION ( 'NONE',  ( 0.000000000000000000, 0.000000000000000000, 1.000000000000000000 ) ) ;
#186 = VERTEX_POINT ( 'NONE', #49 ) ;
#187 = AXIS2_PLACEMENT_3D ( 'NONE', #16, #259, #210 ) ;
#188 = SECURITY_CLASSIFICATION ( '', '', #78 ) ;
#189 = CARTESIAN_POINT ( 'NONE',  ( -8.000000000000000000, 0.000000000000000000, 5.000000000000000000 ) ) ;
#190 = PLANE ( 'NONE',  #86 ) ;
#191 = ADVANCED_FACE ( 'NONE', ( #51 ), #237, .T. ) ;
#192 = DIRECTION ( 'NONE',  ( 0.000000000000000000, -1.000000000000000000, 0.000000000000000000 ) ) ;
#193 = CC_DESIGN_PERSON_AND_ORGANIZATION_ASSIGNMENT ( #292, #59, ( #87 ) ) ;
#194 = CIRCLE ( 'NONE', #34, 8.000000000000000000 ) ;
#195 = DIRECTION ( 'NONE',  ( -0.000000000000000000, -0.000000000000000000, -1.000000000000000000 ) ) ;
#196 = CARTESIAN_POINT ( 'NONE',  ( 0.000000000000000000, 0.000000000000000000, 5.199999999999982414 ) ) ;
#197 = DIRECTION ( 'NONE',  ( 1.000000000000000000, 0.000000000000000000, 0.000000000000000000 ) ) ;
#198 = FACE_OUTER_BOUND ( 'NONE', #84, .T. ) ;
#199 = PERSON_AND_ORGANIZATION_ROLE ( 'classification_officer' ) ;
#200 = ORIENTED_EDGE ( 'NONE', *, *, #55, .F. ) ;
#201 = PRODUCT_DEFINITION ( 'NEZNÁMÝ', '', #87, #80 ) ;
#202 =( NAMED_UNIT ( * ) SI_UNIT ( $, .STERADIAN. ) SOLID_ANGLE_UNIT ( ) );
#203 = AXIS2_PLACEMENT_3D ( 'NONE', #242, #119, #166 ) ;
#204 = DATE_TIME_ROLE ( 'classification_date' ) ;
#205 = VERTEX_POINT ( 'NONE', #27 ) ;
#206 = APPROVAL_DATE_TIME ( #254, #280 ) ;
#207 = CIRCLE ( 'NONE', #38, 5.099999999999999645 ) ;
#208 = FACE_OUTER_BOUND ( 'NONE', #227, .T. ) ;
#209 = LINE ( 'NONE', #184, #121 ) ;
#210 = DIRECTION ( 'NONE',  ( 1.000000000000000000, 0.000000000000000000, 0.000000000000000000 ) ) ;
#211 = AXIS2_PLACEMENT_3D ( 'NONE', #63, #281, #233 ) ;
#212 = ORIENTED_EDGE ( 'NONE', *, *, #69, .T. ) ;
#213 = EDGE_CURVE ( 'NONE', #205, #6, #275, .T. ) ;
#214 = ADVANCED_FACE ( 'NONE', ( #75 ), #120, .T. ) ;
#215 = CARTESIAN_POINT ( 'NONE',  ( -5.299999999999998934, 6.490628035480970938E-16, 5.199999999999982414 ) ) ;
#216 = DIRECTION ( 'NONE',  ( 0.000000000000000000, 0.000000000000000000, 1.000000000000000000 ) ) ;
#217 = CARTESIAN_POINT ( 'NONE',  ( 0.000000000000000000, 0.000000000000000000, 5.000000000000000000 ) ) ;
#218 = CARTESIAN_POINT ( 'NONE',  ( 5.299999999999998934, 0.000000000000000000, 5.199999999999982414 ) ) ;
#219 = FACE_OUTER_BOUND ( 'NONE', #110, .T. ) ;
#220 = APPROVAL_ROLE ( '' ) ;
#221 = EDGE_CURVE ( 'NONE', #6, #205, #207, .T. ) ;
#222 = EDGE_LOOP ( 'NONE', ( #181, #22 ) ) ;
#223 = ORIENTED_EDGE ( 'NONE', *, *, #105, .F. ) ;
#224 = DATE_AND_TIME ( #290, #111 ) ;
#225 = VERTEX_POINT ( 'NONE', #285 ) ;
#226 = APPROVAL_PERSON_ORGANIZATION ( #130, #65, #220 ) ;
#227 = EDGE_LOOP ( 'NONE', ( #41, #152 ) ) ;
#228 = SHAPE_DEFINITION_REPRESENTATION ( #295, #250 ) ;
#229 = ORIENTED_EDGE ( 'NONE', *, *, #221, .T. ) ;
#230 = LOCAL_TIME ( 14, 26, 13.00000000000000000, #179 ) ;
#231 = CARTESIAN_POINT ( 'NONE',  ( -5.099999999999999645, 0.000000000000000000, 405.0000000000000000 ) ) ;
#232 = ORIENTED_EDGE ( 'NONE', *, *, #104, .T. ) ;
#233 = DIRECTION ( 'NONE',  ( 1.000000000000000000, 0.000000000000000000, 0.000000000000000000 ) ) ;
#234 = AXIS2_PLACEMENT_3D ( 'NONE', #215, #42, #115 ) ;
#235 = AXIS2_PLACEMENT_3D ( 'NONE', #217, #195, #289 ) ;
#236 = CARTESIAN_POINT ( 'NONE',  ( 8.000000000000000000, 9.797174393178825657E-16, 0.000000000000000000 ) ) ;
#237 = CYLINDRICAL_SURFACE ( 'NONE', #203, 5.099999999999999645 ) ;
#238 = DIRECTION ( 'NONE',  ( -0.000000000000000000, -0.000000000000000000, -1.000000000000000000 ) ) ;
#239 = MANIFOLD_SOLID_BREP ( 'Zaoblit1', #15 ) ;
#240 = CARTESIAN_POINT ( 'NONE',  ( 0.000000000000000000, 0.000000000000000000, 5.199999999999982414 ) ) ;
#241 = FACE_OUTER_BOUND ( 'NONE', #108, .T. ) ;
#242 = CARTESIAN_POINT ( 'NONE',  ( 0.000000000000000000, 0.000000000000000000, 405.0000000000000000 ) ) ;
#243 = CC_DESIGN_PERSON_AND_ORGANIZATION_ASSIGNMENT ( #82, #251, ( #87 ) ) ;
#244 = PERSON_AND_ORGANIZATION_ROLE ( 'design_owner' ) ;
#245 = LOCAL_TIME ( 14, 26, 13.00000000000000000, #266 ) ;
#246 = CALENDAR_DATE ( 2022, 7, 7 ) ;
#247 = ORIENTED_EDGE ( 'NONE', *, *, #180, .T. ) ;
#248 = CARTESIAN_POINT ( 'NONE',  ( 0.000000000000000000, 0.000000000000000000, 0.000000000000000000 ) ) ;
#249 = CALENDAR_DATE ( 2022, 7, 7 ) ;
#250 = ADVANCED_BREP_SHAPE_REPRESENTATION ( 'aa1b', ( #239, #293 ), #56 ) ;
#251 = PERSON_AND_ORGANIZATION_ROLE ( 'design_supplier' ) ;
#252 = LINE ( 'NONE', #135, #182 ) ;
#253 = CC_DESIGN_DATE_AND_TIME_ASSIGNMENT ( #12, #61, ( #201 ) ) ;
#254 = DATE_AND_TIME ( #249, #62 ) ;
#255 = DIRECTION ( 'NONE',  ( 1.000000000000000000, 0.000000000000000000, 0.000000000000000000 ) ) ;
#256 = TOROIDAL_SURFACE ( 'NONE', #183, 5.299999999999998934, 0.2000000000000000111 ) ;
#257 = ORIENTED_EDGE ( 'NONE', *, *, #213, .F. ) ;
#258 = LINE ( 'NONE', #189, #103 ) ;
#259 = DIRECTION ( 'NONE',  ( -0.000000000000000000, -0.000000000000000000, -1.000000000000000000 ) ) ;
#260 = CC_DESIGN_APPROVAL ( #280, ( #188 ) ) ;
#261 = DIRECTION ( 'NONE',  ( 0.000000000000000000, 0.000000000000000000, 1.000000000000000000 ) ) ;
#262 = CARTESIAN_POINT ( 'NONE',  ( 0.000000000000000000, 0.000000000000000000, 5.000000000000000000 ) ) ;
#263 = PLANE ( 'NONE',  #116 ) ;
#264 = CARTESIAN_POINT ( 'NONE',  ( 0.000000000000000000, 0.000000000000000000, 405.0000000000000000 ) ) ;
#265 = ADVANCED_FACE ( 'NONE', ( #73 ), #11, .F. ) ;
#266 = COORDINATED_UNIVERSAL_TIME_OFFSET ( 1, 0, .AHEAD. ) ;
#267 = ORIENTED_EDGE ( 'NONE', *, *, #104, .F. ) ;
#268 = APPLICATION_PROTOCOL_DEFINITION ( 'international standard', 'config_control_design', 1994, #89 ) ;
#269 = ORIENTED_EDGE ( 'NONE', *, *, #112, .T. ) ;
#270 = COORDINATED_UNIVERSAL_TIME_OFFSET ( 1, 0, .AHEAD. ) ;
#271 = ORIENTED_EDGE ( 'NONE', *, *, #112, .F. ) ;
#272 = VERTEX_POINT ( 'NONE', #123 ) ;
#273 = PERSON_AND_ORGANIZATION_ROLE ( 'creator' ) ;
#274 = CIRCLE ( 'NONE', #139, 5.099999999999999645 ) ;
#275 = CIRCLE ( 'NONE', #297, 5.099999999999999645 ) ;
#276 = VERTEX_POINT ( 'NONE', #126 ) ;
#277 = ORIENTED_EDGE ( 'NONE', *, *, #296, .T. ) ;
#278 = PRODUCT ( 'aa1b', 'aa1b', '', ( #151 ) ) ;
#279 = EDGE_LOOP ( 'NONE', ( #136, #257, #277, #298 ) ) ;
#280 = APPROVAL ( #148, 'NEURÈENÝ' ) ;
#281 = DIRECTION ( 'NONE',  ( 0.000000000000000000, 0.000000000000000000, 1.000000000000000000 ) ) ;
#282 = FACE_OUTER_BOUND ( 'NONE', #138, .T. ) ;
#283 = CYLINDRICAL_SURFACE ( 'NONE', #28, 8.000000000000000000 ) ;
#284 = ORGANIZATION ( 'NEURÈENÝ', 'NEURÈENÝ', '' ) ;
#285 = CARTESIAN_POINT ( 'NONE',  ( 5.099999999999999645, 6.245698675651500839E-16, 405.0000000000000000 ) ) ;
#286 = EDGE_CURVE ( 'NONE', #225, #205, #97, .T. ) ;
#287 = DIRECTION ( 'NONE',  ( 1.000000000000000000, 0.000000000000000000, -0.000000000000000000 ) ) ;
#288 = AXIS2_PLACEMENT_3D ( 'NONE', #101, #261, #102 ) ;
#289 = DIRECTION ( 'NONE',  ( -1.000000000000000000, 0.000000000000000000, 0.000000000000000000 ) ) ;
#290 = CALENDAR_DATE ( 2022, 7, 7 ) ;
#291 = CALENDAR_DATE ( 2022, 7, 7 ) ;
#292 = PERSON_AND_ORGANIZATION ( #83, #284 ) ;
#293 = AXIS2_PLACEMENT_3D ( 'NONE', #248, #29, #31 ) ;
#294 = APPROVAL_ROLE ( '' ) ;
#295 = PRODUCT_DEFINITION_SHAPE ( 'NONE', 'NONE',  #201 ) ;
#296 = EDGE_CURVE ( 'NONE', #205, #60, #77, .T. ) ;
#297 = AXIS2_PLACEMENT_3D ( 'NONE', #196, #216, #197 ) ;
#298 = ORIENTED_EDGE ( 'NONE', *, *, #134, .F. ) ;
#299 = DIRECTION ( 'NONE',  ( -0.000000000000000000, -0.000000000000000000, -1.000000000000000000 ) ) ;
#300 = CARTESIAN_POINT ( 'NONE',  ( 8.000000000000000000, 9.797174393178825657E-16, 5.000000000000000000 ) ) ;
#301 = CIRCLE ( 'NONE', #37, 8.000000000000000000 ) ;
#302 = DIRECTION ( 'NONE',  ( 0.000000000000000000, 0.000000000000000000, 1.000000000000000000 ) ) ;
#303 = CARTESIAN_POINT ( 'NONE',  ( 5.099999999999999645, 6.245698675651500839E-16, 405.0000000000000000 ) ) ;
#304 = DIRECTION ( 'NONE',  ( 1.000000000000000000, 0.000000000000000000, 0.000000000000000000 ) ) ;
#305 = ADVANCED_FACE ( 'NONE', ( #241 ), #283, .T. ) ;
#306 = LOCAL_TIME ( 14, 26, 13.00000000000000000, #30 ) ;
#307 = FACE_OUTER_BOUND ( 'NONE', #222, .T. ) ;
ENDSEC;
END-ISO-10303-21;
