ISO-10303-21;
HEADER;
FILE_DESCRIPTION (( 'STEP AP203' ),
    '1' );
FILE_NAME ('6c1b.STEP',
    '2023-02-12T11:10:37',
    ( '' ),
    ( '' ),
    'SwSTEP 2.0',
    'SolidWorks 2019',
    '' );
FILE_SCHEMA (( 'CONFIG_CONTROL_DESIGN' ));
ENDSEC;

DATA;
#1 = EDGE_LOOP ( 'NONE', ( #83, #131, #49, #196 ) ) ;
#2 = PERSON_AND_ORGANIZATION_ROLE ( 'creator' ) ;
#3 = DIRECTION ( 'NONE',  ( -0.000000000000000000, -0.000000000000000000, -1.000000000000000000 ) ) ;
#4 = ORIENTED_EDGE ( 'NONE', *, *, #166, .F. ) ;
#5 = APPROVAL_ROLE ( '' ) ;
#6 = VERTEX_POINT ( 'NONE', #150 ) ;
#7 = CARTESIAN_POINT ( 'NONE',  ( 0.000000000000000000, 0.000000000000000000, 5.000000000000000000 ) ) ;
#8 = DATE_AND_TIME ( #126, #154 ) ;
#9 = EDGE_CURVE ( 'NONE', #153, #6, #74, .T. ) ;
#10 = VECTOR ( 'NONE', #236, 1000.000000000000000 ) ;
#11 = LOCAL_TIME ( 12, 10, 37.00000000000000000, #15 ) ;
#12 = CALENDAR_DATE ( 2023, 12, 2 ) ;
#13 = DIRECTION ( 'NONE',  ( -0.000000000000000000, -0.000000000000000000, -1.000000000000000000 ) ) ;
#14 = DIRECTION ( 'NONE',  ( -0.000000000000000000, -0.000000000000000000, -1.000000000000000000 ) ) ;
#15 = COORDINATED_UNIVERSAL_TIME_OFFSET ( 1, 0, .AHEAD. ) ;
#16 = DIRECTION ( 'NONE',  ( 1.000000000000000000, 0.000000000000000000, 0.000000000000000000 ) ) ;
#17 = AXIS2_PLACEMENT_3D ( 'NONE', #255, #159, #62 ) ;
#18 = CARTESIAN_POINT ( 'NONE',  ( -4.250000000000000000, 0.000000000000000000, 200.0000000000000000 ) ) ;
#19 = FACE_BOUND ( 'NONE', #56, .T. ) ;
#20 = PERSON ( 'NEURÈENÝ', 'NEURÈENÝ', 'NEURÈENÝ', ('NEURÈENÝ'), ('NEURÈENÝ'), ('NEURÈENÝ') ) ;
#21 = CC_DESIGN_SECURITY_CLASSIFICATION ( #130, ( #88 ) ) ;
#22 = DIRECTION ( 'NONE',  ( -0.000000000000000000, -0.000000000000000000, -1.000000000000000000 ) ) ;
#23 = CARTESIAN_POINT ( 'NONE',  ( 0.000000000000000000, 0.000000000000000000, 200.0000000000000000 ) ) ;
#24 = PERSON_AND_ORGANIZATION_ROLE ( 'classification_officer' ) ;
#25 = DIRECTION ( 'NONE',  ( 0.000000000000000000, 0.000000000000000000, 1.000000000000000000 ) ) ;
#26 = CARTESIAN_POINT ( 'NONE',  ( -4.250000000000000000, 0.000000000000000000, 5.000000000000000000 ) ) ;
#27 = EDGE_CURVE ( 'NONE', #193, #111, #151, .T. ) ;
#28 = EDGE_LOOP ( 'NONE', ( #164, #108, #30, #214 ) ) ;
#29 = CARTESIAN_POINT ( 'NONE',  ( 0.000000000000000000, 0.000000000000000000, 0.000000000000000000 ) ) ;
#30 = ORIENTED_EDGE ( 'NONE', *, *, #57, .T. ) ;
#31 = AXIS2_PLACEMENT_3D ( 'NONE', #85, #25, #127 ) ;
#32 = FACE_OUTER_BOUND ( 'NONE', #35, .T. ) ;
#33 = ORIENTED_EDGE ( 'NONE', *, *, #109, .F. ) ;
#34 = APPROVAL_ROLE ( '' ) ;
#35 = EDGE_LOOP ( 'NONE', ( #233, #215, #114, #96 ) ) ;
#36 = FACE_OUTER_BOUND ( 'NONE', #146, .T. ) ;
#37 = CLOSED_SHELL ( 'NONE', ( #229, #105, #42, #64, #245, #73, #206 ) ) ;
#38 = CIRCLE ( 'NONE', #189, 4.250000000000000000 ) ;
#39 = APPROVAL_PERSON_ORGANIZATION ( #203, #173, #5 ) ;
#40 = FACE_OUTER_BOUND ( 'NONE', #225, .T. ) ;
#41 = APPLICATION_CONTEXT ( 'configuration controlled 3d designs of mechanical parts and assemblies' ) ;
#42 = ADVANCED_FACE ( 'NONE', ( #32 ), #115, .T. ) ;
#43 = COORDINATED_UNIVERSAL_TIME_OFFSET ( 1, 0, .AHEAD. ) ;
#44 = PERSON_AND_ORGANIZATION_ROLE ( 'design_supplier' ) ;
#45 = VERTEX_POINT ( 'NONE', #168 ) ;
#46 = APPROVAL_STATUS ( 'not_yet_approved' ) ;
#47 = LOCAL_TIME ( 12, 10, 37.00000000000000000, #209 ) ;
#48 = APPROVAL_ROLE ( '' ) ;
#49 = ORIENTED_EDGE ( 'NONE', *, *, #166, .T. ) ;
#50 = CARTESIAN_POINT ( 'NONE',  ( 0.000000000000000000, 0.000000000000000000, 0.000000000000000000 ) ) ;
#51 = AXIS2_PLACEMENT_3D ( 'NONE', #148, #14, #194 ) ;
#52 = VERTEX_POINT ( 'NONE', #247 ) ;
#53 = EDGE_CURVE ( 'NONE', #45, #52, #179, .T. ) ;
#54 = ORIENTED_EDGE ( 'NONE', *, *, #162, .T. ) ;
#55 = APPROVAL_STATUS ( 'not_yet_approved' ) ;
#56 = EDGE_LOOP ( 'NONE', ( #33, #135 ) ) ;
#57 = EDGE_CURVE ( 'NONE', #183, #231, #119, .T. ) ;
#58 = CC_DESIGN_PERSON_AND_ORGANIZATION_ASSIGNMENT ( #149, #113, ( #158 ) ) ;
#59 = VECTOR ( 'NONE', #213, 1000.000000000000000 ) ;
#60 = AXIS2_PLACEMENT_3D ( 'NONE', #29, #187, #169 ) ;
#61 = CARTESIAN_POINT ( 'NONE',  ( 0.000000000000000000, 0.000000000000000000, 5.000000000000000000 ) ) ;
#62 = DIRECTION ( 'NONE',  ( 1.000000000000000000, 0.000000000000000000, 0.000000000000000000 ) ) ;
#63 = AXIS2_PLACEMENT_3D ( 'NONE', #61, #143, #98 ) ;
#64 = ADVANCED_FACE ( 'NONE', ( #19, #36 ), #102, .T. ) ;
#65 = ORIENTED_EDGE ( 'NONE', *, *, #53, .T. ) ;
#66 = ORIENTED_EDGE ( 'NONE', *, *, #57, .F. ) ;
#67 = DATE_TIME_ROLE ( 'classification_date' ) ;
#68 = CALENDAR_DATE ( 2023, 12, 2 ) ;
#69 = EDGE_CURVE ( 'NONE', #183, #193, #38, .T. ) ;
#70 = ORIENTED_EDGE ( 'NONE', *, *, #202, .F. ) ;
#71 = DIRECTION ( 'NONE',  ( 0.000000000000000000, 0.000000000000000000, 1.000000000000000000 ) ) ;
#72 = ORIENTED_EDGE ( 'NONE', *, *, #118, .T. ) ;
#73 = ADVANCED_FACE ( 'NONE', ( #142 ), #176, .T. ) ;
#74 = CIRCLE ( 'NONE', #223, 7.000000000000000000 ) ;
#75 = EDGE_LOOP ( 'NONE', ( #70, #185, #72, #66 ) ) ;
#76 = PRODUCT_RELATED_PRODUCT_CATEGORY ( 'detail', '', ( #158 ) ) ;
#77 = FACE_OUTER_BOUND ( 'NONE', #1, .T. ) ;
#78 = DATE_TIME_ROLE ( 'creation_date' ) ;
#79 = CARTESIAN_POINT ( 'NONE',  ( 0.000000000000000000, 0.000000000000000000, 200.0000000000000000 ) ) ;
#80 = COORDINATED_UNIVERSAL_TIME_OFFSET ( 1, 0, .AHEAD. ) ;
#81 = LOCAL_TIME ( 12, 10, 37.00000000000000000, #190 ) ;
#82 = APPROVAL ( #55, 'NEURÈENÝ' ) ;
#83 = ORIENTED_EDGE ( 'NONE', *, *, #162, .F. ) ;
#84 = PERSON_AND_ORGANIZATION ( #20, #217 ) ;
#85 = CARTESIAN_POINT ( 'NONE',  ( 0.000000000000000000, 0.000000000000000000, 5.000000000000000000 ) ) ;
#86 = PERSON_AND_ORGANIZATION ( #20, #217 ) ;
#87 = AXIS2_PLACEMENT_3D ( 'NONE', #116, #195, #16 ) ;
#88 = PRODUCT_DEFINITION_FORMATION_WITH_SPECIFIED_SOURCE ( 'LIBOVOLNÝ', '', #158, .NOT_KNOWN. ) ;
#89 = CIRCLE ( 'NONE', #95, 4.250000000000000000 ) ;
#90 = CARTESIAN_POINT ( 'NONE',  ( 0.000000000000000000, 0.000000000000000000, 0.000000000000000000 ) ) ;
#91 = VECTOR ( 'NONE', #22, 1000.000000000000000 ) ;
#92 = DATE_AND_TIME ( #12, #81 ) ;
#93 = DIRECTION ( 'NONE',  ( -1.000000000000000000, 0.000000000000000000, 0.000000000000000000 ) ) ;
#94 = DIRECTION ( 'NONE',  ( 1.000000000000000000, 0.000000000000000000, 0.000000000000000000 ) ) ;
#95 = AXIS2_PLACEMENT_3D ( 'NONE', #106, #180, #145 ) ;
#96 = ORIENTED_EDGE ( 'NONE', *, *, #9, .T. ) ;
#97 = CC_DESIGN_PERSON_AND_ORGANIZATION_ASSIGNMENT ( #192, #44, ( #88 ) ) ;
#98 = DIRECTION ( 'NONE',  ( 1.000000000000000000, 0.000000000000000000, 0.000000000000000000 ) ) ;
#99 = DIRECTION ( 'NONE',  ( 0.000000000000000000, 0.000000000000000000, 1.000000000000000000 ) ) ;
#100 = DATE_AND_TIME ( #141, #237 ) ;
#101 = CARTESIAN_POINT ( 'NONE',  ( 0.000000000000000000, 0.000000000000000000, 5.000000000000000000 ) ) ;
#102 = PLANE ( 'NONE',  #251 ) ;
#103 = APPROVAL_DATE_TIME ( #92, #216 ) ;
#104 = AXIS2_PLACEMENT_3D ( 'NONE', #230, #13, #93 ) ;
#105 = ADVANCED_FACE ( 'NONE', ( #77 ), #235, .T. ) ;
#106 = CARTESIAN_POINT ( 'NONE',  ( 0.000000000000000000, 0.000000000000000000, 200.0000000000000000 ) ) ;
#107 = DIRECTION ( 'NONE',  ( 0.000000000000000000, 0.000000000000000000, 1.000000000000000000 ) ) ;
#108 = ORIENTED_EDGE ( 'NONE', *, *, #69, .F. ) ;
#109 = EDGE_CURVE ( 'NONE', #231, #111, #188, .T. ) ;
#110 = CARTESIAN_POINT ( 'NONE',  ( 7.000000000000000000, 8.572527594031473190E-16, 5.000000000000000000 ) ) ;
#111 = VERTEX_POINT ( 'NONE', #172 ) ;
#112 = CC_DESIGN_APPROVAL ( #82, ( #88 ) ) ;
#113 = PERSON_AND_ORGANIZATION_ROLE ( 'design_owner' ) ;
#114 = ORIENTED_EDGE ( 'NONE', *, *, #136, .T. ) ;
#115 = CYLINDRICAL_SURFACE ( 'NONE', #104, 7.000000000000000000 ) ;
#116 = CARTESIAN_POINT ( 'NONE',  ( 0.000000000000000000, 0.000000000000000000, 5.000000000000000000 ) ) ;
#117 = CC_DESIGN_APPROVAL ( #216, ( #177 ) ) ;
#118 = EDGE_CURVE ( 'NONE', #111, #231, #212, .T. ) ;
#119 = LINE ( 'NONE', #18, #10 ) ;
#120 = CIRCLE ( 'NONE', #31, 7.000000000000000000 ) ;
#121 = CC_DESIGN_DATE_AND_TIME_ASSIGNMENT ( #8, #67, ( #130 ) ) ;
#122 = CARTESIAN_POINT ( 'NONE',  ( -4.250000000000000000, 0.000000000000000000, 200.0000000000000000 ) ) ;
#123 = CIRCLE ( 'NONE', #17, 7.000000000000000000 ) ;
#124 = VECTOR ( 'NONE', #3, 1000.000000000000000 ) ;
#125 = PLANE ( 'NONE',  #163 ) ;
#126 = CALENDAR_DATE ( 2023, 12, 2 ) ;
#127 = DIRECTION ( 'NONE',  ( 1.000000000000000000, 0.000000000000000000, 0.000000000000000000 ) ) ;
#128 = DIRECTION ( 'NONE',  ( 1.000000000000000000, 0.000000000000000000, 0.000000000000000000 ) ) ;
#129 = APPROVAL_DATE_TIME ( #165, #173 ) ;
#130 = SECURITY_CLASSIFICATION ( '', '', #205 ) ;
#131 = ORIENTED_EDGE ( 'NONE', *, *, #155, .T. ) ;
#132 = MECHANICAL_CONTEXT ( 'NONE', #198, 'mechanical' ) ;
#133 = AXIS2_PLACEMENT_3D ( 'NONE', #7, #222, #128 ) ;
#134 = CYLINDRICAL_SURFACE ( 'NONE', #51, 4.250000000000000000 ) ;
#135 = ORIENTED_EDGE ( 'NONE', *, *, #118, .F. ) ;
#136 = EDGE_CURVE ( 'NONE', #45, #153, #207, .T. ) ;
#137 = APPLICATION_PROTOCOL_DEFINITION ( 'international standard', 'config_control_design', 1994, #198 ) ;
#138 = DIRECTION ( 'NONE',  ( 1.000000000000000000, 0.000000000000000000, 0.000000000000000000 ) ) ;
#139 = APPROVAL_DATE_TIME ( #249, #82 ) ;
#140 = CC_DESIGN_PERSON_AND_ORGANIZATION_ASSIGNMENT ( #221, #24, ( #130 ) ) ;
#141 = CALENDAR_DATE ( 2023, 12, 2 ) ;
#142 = FACE_OUTER_BOUND ( 'NONE', #28, .T. ) ;
#143 = DIRECTION ( 'NONE',  ( 0.000000000000000000, 0.000000000000000000, 1.000000000000000000 ) ) ;
#144 = AXIS2_PLACEMENT_3D ( 'NONE', #252, #254, #253 ) ;
#145 = DIRECTION ( 'NONE',  ( 1.000000000000000000, 0.000000000000000000, 0.000000000000000000 ) ) ;
#146 = EDGE_LOOP ( 'NONE', ( #65, #54 ) ) ;
#147 = SHAPE_DEFINITION_REPRESENTATION ( #199, #211 ) ;
#148 = CARTESIAN_POINT ( 'NONE',  ( 0.000000000000000000, 0.000000000000000000, 200.0000000000000000 ) ) ;
#149 = PERSON_AND_ORGANIZATION ( #20, #217 ) ;
#150 = CARTESIAN_POINT ( 'NONE',  ( 7.000000000000000000, 8.572527594031473190E-16, 0.000000000000000000 ) ) ;
#151 = LINE ( 'NONE', #197, #59 ) ;
#152 = APPROVAL_STATUS ( 'not_yet_approved' ) ;
#153 = VERTEX_POINT ( 'NONE', #239 ) ;
#154 = LOCAL_TIME ( 12, 10, 37.00000000000000000, #43 ) ;
#155 = EDGE_CURVE ( 'NONE', #52, #6, #161, .T. ) ;
#156 = DIRECTION ( 'NONE',  ( 0.000000000000000000, 0.000000000000000000, 1.000000000000000000 ) ) ;
#157 = CARTESIAN_POINT ( 'NONE',  ( 0.000000000000000000, 0.000000000000000000, 5.000000000000000000 ) ) ;
#158 = PRODUCT ( '6c1b', '6c1b', '', ( #132 ) ) ;
#159 = DIRECTION ( 'NONE',  ( 0.000000000000000000, 0.000000000000000000, 1.000000000000000000 ) ) ;
#160 = PERSON_AND_ORGANIZATION ( #20, #217 ) ;
#161 = LINE ( 'NONE', #110, #124 ) ;
#162 = EDGE_CURVE ( 'NONE', #52, #45, #120, .T. ) ;
#163 = AXIS2_PLACEMENT_3D ( 'NONE', #23, #107, #240 ) ;
#164 = ORIENTED_EDGE ( 'NONE', *, *, #27, .F. ) ;
#165 = DATE_AND_TIME ( #68, #47 ) ;
#166 = EDGE_CURVE ( 'NONE', #6, #153, #123, .T. ) ;
#167 = FACE_OUTER_BOUND ( 'NONE', #241, .T. ) ;
#168 = CARTESIAN_POINT ( 'NONE',  ( -7.000000000000000000, 0.000000000000000000, 5.000000000000000000 ) ) ;
#169 = DIRECTION ( 'NONE',  ( 1.000000000000000000, 0.000000000000000000, -0.000000000000000000 ) ) ;
#170 = ORIENTED_EDGE ( 'NONE', *, *, #69, .T. ) ;
#171 = CALENDAR_DATE ( 2023, 12, 2 ) ;
#172 = CARTESIAN_POINT ( 'NONE',  ( 4.250000000000000000, 5.204748896376250699E-16, 5.000000000000000000 ) ) ;
#173 = APPROVAL ( #46, 'NEURÈENÝ' ) ;
#174 = AXIS2_PLACEMENT_3D ( 'NONE', #157, #250, #238 ) ;
#175 = DIRECTION ( 'NONE',  ( 1.000000000000000000, 0.000000000000000000, -0.000000000000000000 ) ) ;
#176 = CYLINDRICAL_SURFACE ( 'NONE', #144, 4.250000000000000000 ) ;
#177 = PRODUCT_DEFINITION ( 'NEZNÁMÝ', '', #88, #184 ) ;
#178 = PERSON_AND_ORGANIZATION ( #20, #217 ) ;
#179 = CIRCLE ( 'NONE', #87, 7.000000000000000000 ) ;
#180 = DIRECTION ( 'NONE',  ( 0.000000000000000000, 0.000000000000000000, 1.000000000000000000 ) ) ;
#181 = ORIENTED_EDGE ( 'NONE', *, *, #202, .T. ) ;
#182 = MANIFOLD_SOLID_BREP ( 'Pøidat vysunutím3', #37 ) ;
#183 = VERTEX_POINT ( 'NONE', #122 ) ;
#184 = DESIGN_CONTEXT ( 'detailed design', #41, 'design' ) ;
#185 = ORIENTED_EDGE ( 'NONE', *, *, #27, .T. ) ;
#186 = CC_DESIGN_PERSON_AND_ORGANIZATION_ASSIGNMENT ( #84, #210, ( #88 ) ) ;
#187 = DIRECTION ( 'NONE',  ( 0.000000000000000000, 0.000000000000000000, 1.000000000000000000 ) ) ;
#188 = CIRCLE ( 'NONE', #63, 4.250000000000000000 ) ;
#189 = AXIS2_PLACEMENT_3D ( 'NONE', #79, #156, #218 ) ;
#190 = COORDINATED_UNIVERSAL_TIME_OFFSET ( 1, 0, .AHEAD. ) ;
#191 = DIRECTION ( 'NONE',  ( 0.000000000000000000, 0.000000000000000000, 1.000000000000000000 ) ) ;
#192 = PERSON_AND_ORGANIZATION ( #20, #217 ) ;
#193 = VERTEX_POINT ( 'NONE', #201 ) ;
#194 = DIRECTION ( 'NONE',  ( -1.000000000000000000, 0.000000000000000000, 0.000000000000000000 ) ) ;
#195 = DIRECTION ( 'NONE',  ( 0.000000000000000000, 0.000000000000000000, 1.000000000000000000 ) ) ;
#196 = ORIENTED_EDGE ( 'NONE', *, *, #136, .F. ) ;
#197 = CARTESIAN_POINT ( 'NONE',  ( 4.250000000000000000, 5.204748896376250699E-16, 200.0000000000000000 ) ) ;
#198 = APPLICATION_CONTEXT ( 'configuration controlled 3d designs of mechanical parts and assemblies' ) ;
#199 = PRODUCT_DEFINITION_SHAPE ( 'NONE', 'NONE',  #177 ) ;
#200 = AXIS2_PLACEMENT_3D ( 'NONE', #90, #71, #94 ) ;
#201 = CARTESIAN_POINT ( 'NONE',  ( 4.250000000000000000, 5.204748896376250699E-16, 200.0000000000000000 ) ) ;
#202 = EDGE_CURVE ( 'NONE', #193, #183, #89, .T. ) ;
#203 = PERSON_AND_ORGANIZATION ( #20, #217 ) ;
#204 = FACE_OUTER_BOUND ( 'NONE', #75, .T. ) ;
#205 = SECURITY_CLASSIFICATION_LEVEL ( 'unclassified' ) ;
#206 = ADVANCED_FACE ( 'NONE', ( #40 ), #125, .T. ) ;
#207 = LINE ( 'NONE', #224, #91 ) ;
#208 = APPROVAL_PERSON_ORGANIZATION ( #160, #82, #34 ) ;
#209 = COORDINATED_UNIVERSAL_TIME_OFFSET ( 1, 0, .AHEAD. ) ;
#210 = PERSON_AND_ORGANIZATION_ROLE ( 'creator' ) ;
#211 = ADVANCED_BREP_SHAPE_REPRESENTATION ( '6c1b', ( #182, #200 ), #234 ) ;
#212 = CIRCLE ( 'NONE', #133, 4.250000000000000000 ) ;
#213 = DIRECTION ( 'NONE',  ( -0.000000000000000000, -0.000000000000000000, -1.000000000000000000 ) ) ;
#214 = ORIENTED_EDGE ( 'NONE', *, *, #109, .T. ) ;
#215 = ORIENTED_EDGE ( 'NONE', *, *, #53, .F. ) ;
#216 = APPROVAL ( #152, 'NEURÈENÝ' ) ;
#217 = ORGANIZATION ( 'NEURÈENÝ', 'NEURÈENÝ', '' ) ;
#218 = DIRECTION ( 'NONE',  ( 1.000000000000000000, 0.000000000000000000, 0.000000000000000000 ) ) ;
#219 = CC_DESIGN_DATE_AND_TIME_ASSIGNMENT ( #100, #78, ( #177 ) ) ;
#220 = CC_DESIGN_APPROVAL ( #173, ( #130 ) ) ;
#221 = PERSON_AND_ORGANIZATION ( #20, #217 ) ;
#222 = DIRECTION ( 'NONE',  ( 0.000000000000000000, 0.000000000000000000, 1.000000000000000000 ) ) ;
#223 = AXIS2_PLACEMENT_3D ( 'NONE', #50, #191, #138 ) ;
#224 = CARTESIAN_POINT ( 'NONE',  ( -7.000000000000000000, 0.000000000000000000, 5.000000000000000000 ) ) ;
#225 = EDGE_LOOP ( 'NONE', ( #170, #181 ) ) ;
#226 =( NAMED_UNIT ( * ) SI_UNIT ( $, .STERADIAN. ) SOLID_ANGLE_UNIT ( ) );
#227 = ORIENTED_EDGE ( 'NONE', *, *, #9, .F. ) ;
#228 = APPLICATION_PROTOCOL_DEFINITION ( 'international standard', 'config_control_design', 1994, #41 ) ;
#229 = ADVANCED_FACE ( 'NONE', ( #204 ), #134, .T. ) ;
#230 = CARTESIAN_POINT ( 'NONE',  ( 0.000000000000000000, 0.000000000000000000, 5.000000000000000000 ) ) ;
#231 = VERTEX_POINT ( 'NONE', #26 ) ;
#232 = CC_DESIGN_PERSON_AND_ORGANIZATION_ASSIGNMENT ( #178, #2, ( #177 ) ) ;
#233 = ORIENTED_EDGE ( 'NONE', *, *, #155, .F. ) ;
#234 =( GEOMETRIC_REPRESENTATION_CONTEXT ( 3 ) GLOBAL_UNCERTAINTY_ASSIGNED_CONTEXT ( ( #243 ) ) GLOBAL_UNIT_ASSIGNED_CONTEXT ( ( #242, #248, #226 ) ) REPRESENTATION_CONTEXT ( 'NONE', 'WORKASPACE' ) );
#235 = CYLINDRICAL_SURFACE ( 'NONE', #174, 7.000000000000000000 ) ;
#236 = DIRECTION ( 'NONE',  ( -0.000000000000000000, -0.000000000000000000, -1.000000000000000000 ) ) ;
#237 = LOCAL_TIME ( 12, 10, 37.00000000000000000, #80 ) ;
#238 = DIRECTION ( 'NONE',  ( -1.000000000000000000, 0.000000000000000000, 0.000000000000000000 ) ) ;
#239 = CARTESIAN_POINT ( 'NONE',  ( -7.000000000000000000, 0.000000000000000000, 0.000000000000000000 ) ) ;
#240 = DIRECTION ( 'NONE',  ( 1.000000000000000000, 0.000000000000000000, -0.000000000000000000 ) ) ;
#241 = EDGE_LOOP ( 'NONE', ( #227, #4 ) ) ;
#242 =( LENGTH_UNIT ( ) NAMED_UNIT ( * ) SI_UNIT ( .MILLI., .METRE. ) );
#243 = UNCERTAINTY_MEASURE_WITH_UNIT (LENGTH_MEASURE( 1.000000000000000082E-05 ), #242, 'distance_accuracy_value', 'NONE');
#244 = APPROVAL_PERSON_ORGANIZATION ( #86, #216, #48 ) ;
#245 = ADVANCED_FACE ( 'NONE', ( #167 ), #246, .F. ) ;
#246 = PLANE ( 'NONE',  #60 ) ;
#247 = CARTESIAN_POINT ( 'NONE',  ( 7.000000000000000000, 8.572527594031473190E-16, 5.000000000000000000 ) ) ;
#248 =( NAMED_UNIT ( * ) PLANE_ANGLE_UNIT ( ) SI_UNIT ( $, .RADIAN. ) );
#249 = DATE_AND_TIME ( #171, #11 ) ;
#250 = DIRECTION ( 'NONE',  ( -0.000000000000000000, -0.000000000000000000, -1.000000000000000000 ) ) ;
#251 = AXIS2_PLACEMENT_3D ( 'NONE', #101, #99, #175 ) ;
#252 = CARTESIAN_POINT ( 'NONE',  ( 0.000000000000000000, 0.000000000000000000, 200.0000000000000000 ) ) ;
#253 = DIRECTION ( 'NONE',  ( -1.000000000000000000, 0.000000000000000000, 0.000000000000000000 ) ) ;
#254 = DIRECTION ( 'NONE',  ( -0.000000000000000000, -0.000000000000000000, -1.000000000000000000 ) ) ;
#255 = CARTESIAN_POINT ( 'NONE',  ( 0.000000000000000000, 0.000000000000000000, 0.000000000000000000 ) ) ;
ENDSEC;
END-ISO-10303-21;
