ISO-10303-21;
HEADER;
FILE_DESCRIPTION (( 'STEP AP203' ),
    '1' );
FILE_NAME ('5d85.STEP',
    '2023-02-12T11:07:50',
    ( '' ),
    ( '' ),
    'SwSTEP 2.0',
    'SolidWorks 2019',
    '' );
FILE_SCHEMA (( 'CONFIG_CONTROL_DESIGN' ));
ENDSEC;

DATA;
#1 = PLANE ( 'NONE',  #89 ) ;
#2 = ADVANCED_FACE ( 'NONE', ( #52 ), #200, .T. ) ;
#3 = DIRECTION ( 'NONE',  ( 1.000000000000000000, 0.000000000000000000, 0.000000000000000000 ) ) ;
#4 = APPROVAL_ROLE ( '' ) ;
#5 = APPROVAL_DATE_TIME ( #7, #205 ) ;
#6 = ORIENTED_EDGE ( 'NONE', *, *, #190, .T. ) ;
#7 = DATE_AND_TIME ( #155, #73 ) ;
#8 = AXIS2_PLACEMENT_3D ( 'NONE', #88, #68, #213 ) ;
#9 = EDGE_LOOP ( 'NONE', ( #67, #224, #24, #131 ) ) ;
#10 = CC_DESIGN_APPROVAL ( #205, ( #151 ) ) ;
#11 = CARTESIAN_POINT ( 'NONE',  ( 4.500000000000000000, 5.510910596163088569E-16, 500.0000000000000000 ) ) ;
#12 = FACE_OUTER_BOUND ( 'NONE', #221, .T. ) ;
#13 = CARTESIAN_POINT ( 'NONE',  ( 0.000000000000000000, 0.000000000000000000, 0.000000000000000000 ) ) ;
#14 = CIRCLE ( 'NONE', #169, 7.000000000000000000 ) ;
#15 = EDGE_CURVE ( 'NONE', #243, #59, #39, .T. ) ;
#16 = DIRECTION ( 'NONE',  ( 0.000000000000000000, 0.000000000000000000, 1.000000000000000000 ) ) ;
#17 =( NAMED_UNIT ( * ) SI_UNIT ( $, .STERADIAN. ) SOLID_ANGLE_UNIT ( ) );
#18 = LOCAL_TIME ( 12, 7, 50.00000000000000000, #102 ) ;
#19 = CC_DESIGN_PERSON_AND_ORGANIZATION_ASSIGNMENT ( #29, #66, ( #72 ) ) ;
#20 = CARTESIAN_POINT ( 'NONE',  ( 0.000000000000000000, 0.000000000000000000, 0.000000000000000000 ) ) ;
#21 = DIRECTION ( 'NONE',  ( 0.000000000000000000, 0.000000000000000000, 1.000000000000000000 ) ) ;
#22 = APPLICATION_PROTOCOL_DEFINITION ( 'international standard', 'config_control_design', 1994, #199 ) ;
#23 = PRODUCT_RELATED_PRODUCT_CATEGORY ( 'detail', '', ( #167 ) ) ;
#24 = ORIENTED_EDGE ( 'NONE', *, *, #112, .T. ) ;
#25 = DATE_TIME_ROLE ( 'creation_date' ) ;
#26 = DESIGN_CONTEXT ( 'detailed design', #170, 'design' ) ;
#27 = ORIENTED_EDGE ( 'NONE', *, *, #15, .F. ) ;
#28 = VERTEX_POINT ( 'NONE', #11 ) ;
#29 = PERSON_AND_ORGANIZATION ( #231, #202 ) ;
#30 = CIRCLE ( 'NONE', #181, 4.500000000000000000 ) ;
#31 = APPROVAL ( #218, 'NEURÈENÝ' ) ;
#32 = DIRECTION ( 'NONE',  ( -0.000000000000000000, -0.000000000000000000, -1.000000000000000000 ) ) ;
#33 = CARTESIAN_POINT ( 'NONE',  ( -7.000000000000000000, 0.000000000000000000, 5.000000000000000000 ) ) ;
#34 = CALENDAR_DATE ( 2023, 12, 2 ) ;
#35 = APPROVAL_PERSON_ORGANIZATION ( #116, #205, #136 ) ;
#36 = DIRECTION ( 'NONE',  ( -1.000000000000000000, 0.000000000000000000, 0.000000000000000000 ) ) ;
#37 = CARTESIAN_POINT ( 'NONE',  ( 0.000000000000000000, 0.000000000000000000, 500.0000000000000000 ) ) ;
#38 = CARTESIAN_POINT ( 'NONE',  ( 7.000000000000000000, 8.572527594031473190E-16, 5.000000000000000000 ) ) ;
#39 = CIRCLE ( 'NONE', #128, 7.000000000000000000 ) ;
#40 = CYLINDRICAL_SURFACE ( 'NONE', #43, 4.500000000000000000 ) ;
#41 = EDGE_CURVE ( 'NONE', #173, #198, #91, .T. ) ;
#42 = VECTOR ( 'NONE', #208, 1000.000000000000000 ) ;
#43 = AXIS2_PLACEMENT_3D ( 'NONE', #77, #237, #134 ) ;
#44 = EDGE_CURVE ( 'NONE', #59, #243, #14, .T. ) ;
#45 = ORIENTED_EDGE ( 'NONE', *, *, #60, .F. ) ;
#46 = SECURITY_CLASSIFICATION_LEVEL ( 'unclassified' ) ;
#47 = VERTEX_POINT ( 'NONE', #228 ) ;
#48 = EDGE_LOOP ( 'NONE', ( #137, #27 ) ) ;
#49 = PERSON_AND_ORGANIZATION_ROLE ( 'design_supplier' ) ;
#50 = EDGE_LOOP ( 'NONE', ( #160, #98, #148, #85 ) ) ;
#51 = EDGE_CURVE ( 'NONE', #96, #180, #188, .T. ) ;
#52 = FACE_OUTER_BOUND ( 'NONE', #178, .T. ) ;
#53 = DIRECTION ( 'NONE',  ( -0.000000000000000000, -0.000000000000000000, -1.000000000000000000 ) ) ;
#54 = SHAPE_DEFINITION_REPRESENTATION ( #191, #133 ) ;
#55 = DIRECTION ( 'NONE',  ( 0.000000000000000000, 0.000000000000000000, 1.000000000000000000 ) ) ;
#56 = CARTESIAN_POINT ( 'NONE',  ( 0.000000000000000000, 0.000000000000000000, 500.0000000000000000 ) ) ;
#57 = DIRECTION ( 'NONE',  ( 0.000000000000000000, 0.000000000000000000, 1.000000000000000000 ) ) ;
#58 = DIRECTION ( 'NONE',  ( 1.000000000000000000, 0.000000000000000000, 0.000000000000000000 ) ) ;
#59 = VERTEX_POINT ( 'NONE', #69 ) ;
#60 = EDGE_CURVE ( 'NONE', #180, #96, #225, .T. ) ;
#61 = CARTESIAN_POINT ( 'NONE',  ( 0.000000000000000000, 0.000000000000000000, 0.000000000000000000 ) ) ;
#62 = APPROVAL_ROLE ( '' ) ;
#63 = ORIENTED_EDGE ( 'NONE', *, *, #60, .T. ) ;
#64 = AXIS2_PLACEMENT_3D ( 'NONE', #61, #21, #177 ) ;
#65 = CC_DESIGN_PERSON_AND_ORGANIZATION_ASSIGNMENT ( #142, #49, ( #174 ) ) ;
#66 = PERSON_AND_ORGANIZATION_ROLE ( 'classification_officer' ) ;
#67 = ORIENTED_EDGE ( 'NONE', *, *, #190, .F. ) ;
#68 = DIRECTION ( 'NONE',  ( 0.000000000000000000, 0.000000000000000000, 1.000000000000000000 ) ) ;
#69 = CARTESIAN_POINT ( 'NONE',  ( -7.000000000000000000, 0.000000000000000000, 0.000000000000000000 ) ) ;
#70 = CARTESIAN_POINT ( 'NONE',  ( 0.000000000000000000, 0.000000000000000000, 500.0000000000000000 ) ) ;
#71 = AXIS2_PLACEMENT_3D ( 'NONE', #56, #124, #210 ) ;
#72 = SECURITY_CLASSIFICATION ( '', '', #46 ) ;
#73 = LOCAL_TIME ( 12, 7, 50.00000000000000000, #239 ) ;
#74 = DIRECTION ( 'NONE',  ( -0.000000000000000000, -0.000000000000000000, -1.000000000000000000 ) ) ;
#75 = CC_DESIGN_PERSON_AND_ORGANIZATION_ASSIGNMENT ( #156, #84, ( #167 ) ) ;
#76 = AXIS2_PLACEMENT_3D ( 'NONE', #70, #165, #36 ) ;
#77 = CARTESIAN_POINT ( 'NONE',  ( 0.000000000000000000, 0.000000000000000000, 500.0000000000000000 ) ) ;
#78 = ADVANCED_FACE ( 'NONE', ( #163 ), #252, .T. ) ;
#79 = DATE_AND_TIME ( #113, #140 ) ;
#80 = APPLICATION_PROTOCOL_DEFINITION ( 'international standard', 'config_control_design', 1994, #170 ) ;
#81 = EDGE_LOOP ( 'NONE', ( #222, #45, #184, #157 ) ) ;
#82 = EDGE_CURVE ( 'NONE', #28, #47, #126, .T. ) ;
#83 = MECHANICAL_CONTEXT ( 'NONE', #199, 'mechanical' ) ;
#84 = PERSON_AND_ORGANIZATION_ROLE ( 'design_owner' ) ;
#85 = ORIENTED_EDGE ( 'NONE', *, *, #87, .T. ) ;
#86 = DIRECTION ( 'NONE',  ( 0.000000000000000000, 0.000000000000000000, 1.000000000000000000 ) ) ;
#87 = EDGE_CURVE ( 'NONE', #198, #47, #138, .T. ) ;
#88 = CARTESIAN_POINT ( 'NONE',  ( 0.000000000000000000, 0.000000000000000000, 5.000000000000000000 ) ) ;
#89 = AXIS2_PLACEMENT_3D ( 'NONE', #236, #215, #147 ) ;
#90 = DIRECTION ( 'NONE',  ( 1.000000000000000000, 0.000000000000000000, 0.000000000000000000 ) ) ;
#91 = LINE ( 'NONE', #230, #220 ) ;
#92 = DIRECTION ( 'NONE',  ( 0.000000000000000000, 0.000000000000000000, 1.000000000000000000 ) ) ;
#93 = AXIS2_PLACEMENT_3D ( 'NONE', #105, #86, #161 ) ;
#94 = FACE_BOUND ( 'NONE', #141, .T. ) ;
#95 = PERSON_AND_ORGANIZATION ( #231, #202 ) ;
#96 = VERTEX_POINT ( 'NONE', #38 ) ;
#97 = DATE_AND_TIME ( #159, #182 ) ;
#98 = ORIENTED_EDGE ( 'NONE', *, *, #214, .F. ) ;
#99 = CC_DESIGN_DATE_AND_TIME_ASSIGNMENT ( #171, #25, ( #151 ) ) ;
#100 = ORIENTED_EDGE ( 'NONE', *, *, #112, .F. ) ;
#101 = CC_DESIGN_SECURITY_CLASSIFICATION ( #72, ( #174 ) ) ;
#102 = COORDINATED_UNIVERSAL_TIME_OFFSET ( 1, 0, .AHEAD. ) ;
#103 = DIRECTION ( 'NONE',  ( 0.000000000000000000, 0.000000000000000000, 1.000000000000000000 ) ) ;
#104 = VECTOR ( 'NONE', #74, 1000.000000000000000 ) ;
#105 = CARTESIAN_POINT ( 'NONE',  ( 0.000000000000000000, 0.000000000000000000, 5.000000000000000000 ) ) ;
#106 = ADVANCED_FACE ( 'NONE', ( #146 ), #145, .T. ) ;
#107 = CARTESIAN_POINT ( 'NONE',  ( 0.000000000000000000, 0.000000000000000000, 5.000000000000000000 ) ) ;
#108 = APPROVAL ( #240, 'NEURÈENÝ' ) ;
#109 = DIRECTION ( 'NONE',  ( -0.000000000000000000, -0.000000000000000000, -1.000000000000000000 ) ) ;
#110 = LINE ( 'NONE', #194, #196 ) ;
#111 = FACE_OUTER_BOUND ( 'NONE', #48, .T. ) ;
#112 = EDGE_CURVE ( 'NONE', #47, #198, #209, .T. ) ;
#113 = CALENDAR_DATE ( 2023, 12, 2 ) ;
#114 = PERSON_AND_ORGANIZATION_ROLE ( 'creator' ) ;
#115 = CC_DESIGN_APPROVAL ( #31, ( #174 ) ) ;
#116 = PERSON_AND_ORGANIZATION ( #231, #202 ) ;
#117 = ORIENTED_EDGE ( 'NONE', *, *, #127, .F. ) ;
#118 = EDGE_LOOP ( 'NONE', ( #63, #143 ) ) ;
#119 = LOCAL_TIME ( 12, 7, 50.00000000000000000, #246 ) ;
#120 = CARTESIAN_POINT ( 'NONE',  ( -7.000000000000000000, 0.000000000000000000, 5.000000000000000000 ) ) ;
#121 = DIRECTION ( 'NONE',  ( 1.000000000000000000, 0.000000000000000000, 0.000000000000000000 ) ) ;
#122 = DATE_AND_TIME ( #34, #18 ) ;
#123 = AXIS2_PLACEMENT_3D ( 'NONE', #125, #211, #232 ) ;
#124 = DIRECTION ( 'NONE',  ( 0.000000000000000000, 0.000000000000000000, 1.000000000000000000 ) ) ;
#125 = CARTESIAN_POINT ( 'NONE',  ( 0.000000000000000000, 0.000000000000000000, 5.000000000000000000 ) ) ;
#126 = LINE ( 'NONE', #253, #104 ) ;
#127 = EDGE_CURVE ( 'NONE', #180, #59, #249, .T. ) ;
#128 = AXIS2_PLACEMENT_3D ( 'NONE', #251, #144, #121 ) ;
#129 = CIRCLE ( 'NONE', #166, 4.500000000000000000 ) ;
#130 = DIRECTION ( 'NONE',  ( 1.000000000000000000, 0.000000000000000000, -0.000000000000000000 ) ) ;
#131 = ORIENTED_EDGE ( 'NONE', *, *, #41, .F. ) ;
#132 =( LENGTH_UNIT ( ) NAMED_UNIT ( * ) SI_UNIT ( .MILLI., .METRE. ) );
#133 = ADVANCED_BREP_SHAPE_REPRESENTATION ( '5d85', ( #203, #64 ), #183 ) ;
#134 = DIRECTION ( 'NONE',  ( -1.000000000000000000, 0.000000000000000000, 0.000000000000000000 ) ) ;
#135 = PERSON_AND_ORGANIZATION ( #231, #202 ) ;
#136 = APPROVAL_ROLE ( '' ) ;
#137 = ORIENTED_EDGE ( 'NONE', *, *, #44, .F. ) ;
#138 = CIRCLE ( 'NONE', #8, 4.500000000000000000 ) ;
#139 = APPROVAL_DATE_TIME ( #97, #31 ) ;
#140 = LOCAL_TIME ( 12, 7, 50.00000000000000000, #223 ) ;
#141 = EDGE_LOOP ( 'NONE', ( #176, #100 ) ) ;
#142 = PERSON_AND_ORGANIZATION ( #231, #202 ) ;
#143 = ORIENTED_EDGE ( 'NONE', *, *, #51, .T. ) ;
#144 = DIRECTION ( 'NONE',  ( 0.000000000000000000, 0.000000000000000000, 1.000000000000000000 ) ) ;
#145 = CYLINDRICAL_SURFACE ( 'NONE', #123, 7.000000000000000000 ) ;
#146 = FACE_OUTER_BOUND ( 'NONE', #81, .T. ) ;
#147 = DIRECTION ( 'NONE',  ( 1.000000000000000000, 0.000000000000000000, -0.000000000000000000 ) ) ;
#148 = ORIENTED_EDGE ( 'NONE', *, *, #41, .T. ) ;
#149 = PLANE ( 'NONE',  #164 ) ;
#150 = ORIENTED_EDGE ( 'NONE', *, *, #214, .T. ) ;
#151 = PRODUCT_DEFINITION ( 'NEZNÁMÝ', '', #174, #26 ) ;
#152 = FACE_OUTER_BOUND ( 'NONE', #50, .T. ) ;
#153 = AXIS2_PLACEMENT_3D ( 'NONE', #107, #92, #227 ) ;
#154 = CC_DESIGN_PERSON_AND_ORGANIZATION_ASSIGNMENT ( #135, #114, ( #151 ) ) ;
#155 = CALENDAR_DATE ( 2023, 12, 2 ) ;
#156 = PERSON_AND_ORGANIZATION ( #231, #202 ) ;
#157 = ORIENTED_EDGE ( 'NONE', *, *, #44, .T. ) ;
#158 = COORDINATED_UNIVERSAL_TIME_OFFSET ( 1, 0, .AHEAD. ) ;
#159 = CALENDAR_DATE ( 2023, 12, 2 ) ;
#160 = ORIENTED_EDGE ( 'NONE', *, *, #82, .F. ) ;
#161 = DIRECTION ( 'NONE',  ( 1.000000000000000000, 0.000000000000000000, 0.000000000000000000 ) ) ;
#162 = CARTESIAN_POINT ( 'NONE',  ( 0.000000000000000000, 0.000000000000000000, 5.000000000000000000 ) ) ;
#163 = FACE_OUTER_BOUND ( 'NONE', #9, .T. ) ;
#164 = AXIS2_PLACEMENT_3D ( 'NONE', #20, #16, #130 ) ;
#165 = DIRECTION ( 'NONE',  ( -0.000000000000000000, -0.000000000000000000, -1.000000000000000000 ) ) ;
#166 = AXIS2_PLACEMENT_3D ( 'NONE', #254, #216, #3 ) ;
#167 = PRODUCT ( '5d85', '5d85', '', ( #83 ) ) ;
#168 = FACE_OUTER_BOUND ( 'NONE', #118, .T. ) ;
#169 = AXIS2_PLACEMENT_3D ( 'NONE', #13, #57, #58 ) ;
#170 = APPLICATION_CONTEXT ( 'configuration controlled 3d designs of mechanical parts and assemblies' ) ;
#171 = DATE_AND_TIME ( #242, #119 ) ;
#172 = UNCERTAINTY_MEASURE_WITH_UNIT (LENGTH_MEASURE( 1.000000000000000082E-05 ), #132, 'distance_accuracy_value', 'NONE');
#173 = VERTEX_POINT ( 'NONE', #206 ) ;
#174 = PRODUCT_DEFINITION_FORMATION_WITH_SPECIFIED_SOURCE ( 'LIBOVOLNÝ', '', #167, .NOT_KNOWN. ) ;
#175 = PERSON_AND_ORGANIZATION ( #231, #202 ) ;
#176 = ORIENTED_EDGE ( 'NONE', *, *, #87, .F. ) ;
#177 = DIRECTION ( 'NONE',  ( 1.000000000000000000, 0.000000000000000000, 0.000000000000000000 ) ) ;
#178 = EDGE_LOOP ( 'NONE', ( #233, #219, #247, #117 ) ) ;
#179 = APPROVAL_STATUS ( 'not_yet_approved' ) ;
#180 = VERTEX_POINT ( 'NONE', #33 ) ;
#181 = AXIS2_PLACEMENT_3D ( 'NONE', #37, #103, #189 ) ;
#182 = LOCAL_TIME ( 12, 7, 50.00000000000000000, #158 ) ;
#183 =( GEOMETRIC_REPRESENTATION_CONTEXT ( 3 ) GLOBAL_UNCERTAINTY_ASSIGNED_CONTEXT ( ( #172 ) ) GLOBAL_UNIT_ASSIGNED_CONTEXT ( ( #132, #193, #17 ) ) REPRESENTATION_CONTEXT ( 'NONE', 'WORKASPACE' ) );
#184 = ORIENTED_EDGE ( 'NONE', *, *, #127, .T. ) ;
#185 = DIRECTION ( 'NONE',  ( -1.000000000000000000, 0.000000000000000000, 0.000000000000000000 ) ) ;
#186 = CARTESIAN_POINT ( 'NONE',  ( -4.500000000000000000, 0.000000000000000000, 5.000000000000000000 ) ) ;
#187 = CC_DESIGN_DATE_AND_TIME_ASSIGNMENT ( #79, #197, ( #72 ) ) ;
#188 = CIRCLE ( 'NONE', #192, 7.000000000000000000 ) ;
#189 = DIRECTION ( 'NONE',  ( 1.000000000000000000, 0.000000000000000000, 0.000000000000000000 ) ) ;
#190 = EDGE_CURVE ( 'NONE', #28, #173, #30, .T. ) ;
#191 = PRODUCT_DEFINITION_SHAPE ( 'NONE', 'NONE',  #151 ) ;
#192 = AXIS2_PLACEMENT_3D ( 'NONE', #162, #55, #90 ) ;
#193 =( NAMED_UNIT ( * ) PLANE_ANGLE_UNIT ( ) SI_UNIT ( $, .RADIAN. ) );
#194 = CARTESIAN_POINT ( 'NONE',  ( 7.000000000000000000, 8.572527594031473190E-16, 5.000000000000000000 ) ) ;
#195 = PERSON_AND_ORGANIZATION_ROLE ( 'creator' ) ;
#196 = VECTOR ( 'NONE', #109, 1000.000000000000000 ) ;
#197 = DATE_TIME_ROLE ( 'classification_date' ) ;
#198 = VERTEX_POINT ( 'NONE', #186 ) ;
#199 = APPLICATION_CONTEXT ( 'configuration controlled 3d designs of mechanical parts and assemblies' ) ;
#200 = CYLINDRICAL_SURFACE ( 'NONE', #244, 7.000000000000000000 ) ;
#201 = ADVANCED_FACE ( 'NONE', ( #12 ), #229, .T. ) ;
#202 = ORGANIZATION ( 'NEURÈENÝ', 'NEURÈENÝ', '' ) ;
#203 = MANIFOLD_SOLID_BREP ( 'Pøidat vysunutím3', #250 ) ;
#204 = CARTESIAN_POINT ( 'NONE',  ( 0.000000000000000000, 0.000000000000000000, 5.000000000000000000 ) ) ;
#205 = APPROVAL ( #179, 'NEURÈENÝ' ) ;
#206 = CARTESIAN_POINT ( 'NONE',  ( -4.500000000000000000, 0.000000000000000000, 500.0000000000000000 ) ) ;
#207 = APPROVAL_DATE_TIME ( #122, #108 ) ;
#208 = DIRECTION ( 'NONE',  ( -0.000000000000000000, -0.000000000000000000, -1.000000000000000000 ) ) ;
#209 = CIRCLE ( 'NONE', #93, 4.500000000000000000 ) ;
#210 = DIRECTION ( 'NONE',  ( 1.000000000000000000, 0.000000000000000000, -0.000000000000000000 ) ) ;
#211 = DIRECTION ( 'NONE',  ( -0.000000000000000000, -0.000000000000000000, -1.000000000000000000 ) ) ;
#212 = ADVANCED_FACE ( 'NONE', ( #111 ), #149, .F. ) ;
#213 = DIRECTION ( 'NONE',  ( 1.000000000000000000, 0.000000000000000000, 0.000000000000000000 ) ) ;
#214 = EDGE_CURVE ( 'NONE', #173, #28, #129, .T. ) ;
#215 = DIRECTION ( 'NONE',  ( 0.000000000000000000, 0.000000000000000000, 1.000000000000000000 ) ) ;
#216 = DIRECTION ( 'NONE',  ( 0.000000000000000000, 0.000000000000000000, 1.000000000000000000 ) ) ;
#217 = CC_DESIGN_APPROVAL ( #108, ( #72 ) ) ;
#218 = APPROVAL_STATUS ( 'not_yet_approved' ) ;
#219 = ORIENTED_EDGE ( 'NONE', *, *, #226, .T. ) ;
#220 = VECTOR ( 'NONE', #53, 1000.000000000000000 ) ;
#221 = EDGE_LOOP ( 'NONE', ( #150, #6 ) ) ;
#222 = ORIENTED_EDGE ( 'NONE', *, *, #226, .F. ) ;
#223 = COORDINATED_UNIVERSAL_TIME_OFFSET ( 1, 0, .AHEAD. ) ;
#224 = ORIENTED_EDGE ( 'NONE', *, *, #82, .T. ) ;
#225 = CIRCLE ( 'NONE', #153, 7.000000000000000000 ) ;
#226 = EDGE_CURVE ( 'NONE', #96, #243, #110, .T. ) ;
#227 = DIRECTION ( 'NONE',  ( 1.000000000000000000, 0.000000000000000000, 0.000000000000000000 ) ) ;
#228 = CARTESIAN_POINT ( 'NONE',  ( 4.500000000000000000, 5.510910596163088569E-16, 5.000000000000000000 ) ) ;
#229 = PLANE ( 'NONE',  #71 ) ;
#230 = CARTESIAN_POINT ( 'NONE',  ( -4.500000000000000000, 0.000000000000000000, 500.0000000000000000 ) ) ;
#231 = PERSON ( 'NEURÈENÝ', 'NEURÈENÝ', 'NEURÈENÝ', ('NEURÈENÝ'), ('NEURÈENÝ'), ('NEURÈENÝ') ) ;
#232 = DIRECTION ( 'NONE',  ( -1.000000000000000000, 0.000000000000000000, 0.000000000000000000 ) ) ;
#233 = ORIENTED_EDGE ( 'NONE', *, *, #51, .F. ) ;
#234 = CARTESIAN_POINT ( 'NONE',  ( 7.000000000000000000, 8.572527594031473190E-16, 0.000000000000000000 ) ) ;
#235 = APPROVAL_PERSON_ORGANIZATION ( #248, #31, #4 ) ;
#236 = CARTESIAN_POINT ( 'NONE',  ( 0.000000000000000000, 0.000000000000000000, 5.000000000000000000 ) ) ;
#237 = DIRECTION ( 'NONE',  ( -0.000000000000000000, -0.000000000000000000, -1.000000000000000000 ) ) ;
#238 = CC_DESIGN_PERSON_AND_ORGANIZATION_ASSIGNMENT ( #95, #195, ( #174 ) ) ;
#239 = COORDINATED_UNIVERSAL_TIME_OFFSET ( 1, 0, .AHEAD. ) ;
#240 = APPROVAL_STATUS ( 'not_yet_approved' ) ;
#241 = ADVANCED_FACE ( 'NONE', ( #152 ), #40, .T. ) ;
#242 = CALENDAR_DATE ( 2023, 12, 2 ) ;
#243 = VERTEX_POINT ( 'NONE', #234 ) ;
#244 = AXIS2_PLACEMENT_3D ( 'NONE', #204, #32, #185 ) ;
#245 = APPROVAL_PERSON_ORGANIZATION ( #175, #108, #62 ) ;
#246 = COORDINATED_UNIVERSAL_TIME_OFFSET ( 1, 0, .AHEAD. ) ;
#247 = ORIENTED_EDGE ( 'NONE', *, *, #15, .T. ) ;
#248 = PERSON_AND_ORGANIZATION ( #231, #202 ) ;
#249 = LINE ( 'NONE', #120, #42 ) ;
#250 = CLOSED_SHELL ( 'NONE', ( #78, #2, #106, #255, #212, #241, #201 ) ) ;
#251 = CARTESIAN_POINT ( 'NONE',  ( 0.000000000000000000, 0.000000000000000000, 0.000000000000000000 ) ) ;
#252 = CYLINDRICAL_SURFACE ( 'NONE', #76, 4.500000000000000000 ) ;
#253 = CARTESIAN_POINT ( 'NONE',  ( 4.500000000000000000, 5.510910596163088569E-16, 500.0000000000000000 ) ) ;
#254 = CARTESIAN_POINT ( 'NONE',  ( 0.000000000000000000, 0.000000000000000000, 500.0000000000000000 ) ) ;
#255 = ADVANCED_FACE ( 'NONE', ( #94, #168 ), #1, .T. ) ;
ENDSEC;
END-ISO-10303-21;
