ISO-10303-21;
HEADER;
FILE_DESCRIPTION (( 'STEP AP203' ),
    '1' );
FILE_NAME ('3f21.STEP',
    '2022-07-07T12:52:26',
    ( '' ),
    ( '' ),
    'SwSTEP 2.0',
    'SolidWorks 2019',
    '' );
FILE_SCHEMA (( 'CONFIG_CONTROL_DESIGN' ));
ENDSEC;

DATA;
#1 = DIRECTION ( 'NONE',  ( 1.000000000000000000, 0.000000000000000000, 0.000000000000000000 ) ) ;
#2 = AXIS2_PLACEMENT_3D ( 'NONE', #139, #228, #157 ) ;
#3 = DATE_AND_TIME ( #280, #45 ) ;
#4 = ADVANCED_FACE ( 'NONE', ( #51 ), #200, .T. ) ;
#5 = PERSON_AND_ORGANIZATION_ROLE ( 'creator' ) ;
#6 = VERTEX_POINT ( 'NONE', #77 ) ;
#7 = VERTEX_POINT ( 'NONE', #173 ) ;
#8 = EDGE_LOOP ( 'NONE', ( #101, #72 ) ) ;
#9 = VERTEX_POINT ( 'NONE', #42 ) ;
#10 = DIRECTION ( 'NONE',  ( 1.000000000000000000, 0.000000000000000000, 0.000000000000000000 ) ) ;
#11 = DIRECTION ( 'NONE',  ( -1.000000000000000000, 0.000000000000000000, 0.000000000000000000 ) ) ;
#12 = CARTESIAN_POINT ( 'NONE',  ( 0.000000000000000000, 0.000000000000000000, 0.000000000000000000 ) ) ;
#13 = DIRECTION ( 'NONE',  ( 0.000000000000000000, 0.000000000000000000, -1.000000000000000000 ) ) ;
#14 = ORIENTED_EDGE ( 'NONE', *, *, #246, .F. ) ;
#15 = DIRECTION ( 'NONE',  ( 0.000000000000000000, -1.000000000000000000, 0.000000000000000000 ) ) ;
#16 = CARTESIAN_POINT ( 'NONE',  ( 0.000000000000000000, 0.000000000000000000, 203.0000000000000000 ) ) ;
#17 = EDGE_CURVE ( 'NONE', #127, #287, #218, .T. ) ;
#18 = MECHANICAL_CONTEXT ( 'NONE', #103, 'mechanical' ) ;
#19 = ADVANCED_FACE ( 'NONE', ( #26 ), #83, .F. ) ;
#20 = ORIENTED_EDGE ( 'NONE', *, *, #297, .F. ) ;
#21 = AXIS2_PLACEMENT_3D ( 'NONE', #257, #92, #118 ) ;
#22 = LOCAL_TIME ( 14, 52, 26.00000000000000000, #169 ) ;
#23 = CC_DESIGN_PERSON_AND_ORGANIZATION_ASSIGNMENT ( #36, #141, ( #71 ) ) ;
#24 = APPROVAL_STATUS ( 'not_yet_approved' ) ;
#25 = ORIENTED_EDGE ( 'NONE', *, *, #37, .F. ) ;
#26 = FACE_OUTER_BOUND ( 'NONE', #47, .T. ) ;
#27 = VERTEX_POINT ( 'NONE', #130 ) ;
#28 = EDGE_CURVE ( 'NONE', #27, #198, #171, .T. ) ;
#29 = DIRECTION ( 'NONE',  ( -0.000000000000000000, -0.000000000000000000, -1.000000000000000000 ) ) ;
#30 = PRODUCT_RELATED_PRODUCT_CATEGORY ( 'detail', '', ( #84 ) ) ;
#31 = CARTESIAN_POINT ( 'NONE',  ( 0.000000000000000000, 0.000000000000000000, 3.000000000000000000 ) ) ;
#32 = CARTESIAN_POINT ( 'NONE',  ( -3.500000000000000444, 0.000000000000000000, 3.000000000000000000 ) ) ;
#33 = AXIS2_PLACEMENT_3D ( 'NONE', #298, #35, #231 ) ;
#34 = FACE_OUTER_BOUND ( 'NONE', #62, .T. ) ;
#35 = DIRECTION ( 'NONE',  ( 0.000000000000000000, 0.000000000000000000, 1.000000000000000000 ) ) ;
#36 = PERSON_AND_ORGANIZATION ( #158, #57 ) ;
#37 = EDGE_CURVE ( 'NONE', #127, #147, #53, .T. ) ;
#38 = CARTESIAN_POINT ( 'NONE',  ( 0.000000000000000000, 0.000000000000000000, 203.0000000000000000 ) ) ;
#39 = CARTESIAN_POINT ( 'NONE',  ( 0.000000000000000000, 0.000000000000000000, 3.200000000000008171 ) ) ;
#40 = APPLICATION_PROTOCOL_DEFINITION ( 'international standard', 'config_control_design', 1994, #103 ) ;
#41 = DIRECTION ( 'NONE',  ( -0.000000000000000000, -0.000000000000000000, -1.000000000000000000 ) ) ;
#42 = CARTESIAN_POINT ( 'NONE',  ( -1.950000000000000400, 2.388061258337339136E-16, 3.000000000000004441 ) ) ;
#43 = CALENDAR_DATE ( 2022, 7, 7 ) ;
#44 = ORIENTED_EDGE ( 'NONE', *, *, #28, .F. ) ;
#45 = LOCAL_TIME ( 14, 52, 26.00000000000000000, #214 ) ;
#46 = PERSON_AND_ORGANIZATION ( #158, #57 ) ;
#47 = EDGE_LOOP ( 'NONE', ( #170, #20, #152, #243 ) ) ;
#48 = CC_DESIGN_PERSON_AND_ORGANIZATION_ASSIGNMENT ( #46, #166, ( #290 ) ) ;
#49 = DIRECTION ( 'NONE',  ( 0.000000000000000000, 0.000000000000000000, 1.000000000000000000 ) ) ;
#50 = EDGE_CURVE ( 'NONE', #6, #9, #286, .T. ) ;
#51 = FACE_OUTER_BOUND ( 'NONE', #202, .T. ) ;
#52 = AXIS2_PLACEMENT_3D ( 'NONE', #39, #142, #68 ) ;
#53 = LINE ( 'NONE', #32, #303 ) ;
#54 = AXIS2_PLACEMENT_3D ( 'NONE', #82, #227, #10 ) ;
#55 = DIRECTION ( 'NONE',  ( -1.000000000000000000, 0.000000000000000000, 0.000000000000000000 ) ) ;
#56 = FACE_OUTER_BOUND ( 'NONE', #74, .T. ) ;
#57 = ORGANIZATION ( 'NEURÈENÝ', 'NEURÈENÝ', '' ) ;
#58 = APPROVAL_PERSON_ORGANIZATION ( #105, #143, #215 ) ;
#59 = DIRECTION ( 'NONE',  ( 1.000000000000000000, 0.000000000000000000, 0.000000000000000000 ) ) ;
#60 = SECURITY_CLASSIFICATION ( '', '', #248 ) ;
#61 = DIRECTION ( 'NONE',  ( -1.000000000000000000, 0.000000000000000000, 0.000000000000000000 ) ) ;
#62 = EDGE_LOOP ( 'NONE', ( #89, #128 ) ) ;
#63 = EDGE_CURVE ( 'NONE', #198, #6, #233, .T. ) ;
#64 = DIRECTION ( 'NONE',  ( -0.000000000000000000, -0.000000000000000000, -1.000000000000000000 ) ) ;
#65 = APPLICATION_CONTEXT ( 'configuration controlled 3d designs of mechanical parts and assemblies' ) ;
#66 = DIRECTION ( 'NONE',  ( 0.000000000000000000, 0.000000000000000000, 1.000000000000000000 ) ) ;
#67 = DIRECTION ( 'NONE',  ( 1.000000000000000000, 0.000000000000000000, 0.000000000000000000 ) ) ;
#68 = DIRECTION ( 'NONE',  ( 1.000000000000000000, 0.000000000000000000, 0.000000000000000000 ) ) ;
#69 = DESIGN_CONTEXT ( 'detailed design', #65, 'design' ) ;
#70 = CALENDAR_DATE ( 2022, 7, 7 ) ;
#71 = PRODUCT_DEFINITION ( 'NEZNÁMÝ', '', #290, #69 ) ;
#72 = ORIENTED_EDGE ( 'NONE', *, *, #184, .F. ) ;
#73 = COORDINATED_UNIVERSAL_TIME_OFFSET ( 1, 0, .AHEAD. ) ;
#74 = EDGE_LOOP ( 'NONE', ( #225, #102, #209, #25 ) ) ;
#75 = CIRCLE ( 'NONE', #176, 1.750000000000000222 ) ;
#76 = DATE_AND_TIME ( #70, #96 ) ;
#77 = CARTESIAN_POINT ( 'NONE',  ( 1.950000000000000400, 0.000000000000000000, 3.000000000000004441 ) ) ;
#78 = ADVANCED_FACE ( 'NONE', ( #56 ), #153, .T. ) ;
#79 = ORIENTED_EDGE ( 'NONE', *, *, #255, .T. ) ;
#80 = VECTOR ( 'NONE', #64, 1000.000000000000000 ) ;
#81 = FACE_OUTER_BOUND ( 'NONE', #167, .T. ) ;
#82 = CARTESIAN_POINT ( 'NONE',  ( 0.000000000000000000, 0.000000000000000000, 3.000000000000000000 ) ) ;
#83 = TOROIDAL_SURFACE ( 'NONE', #205, 1.950000000000000400, 0.2000000000000000111 ) ;
#84 = PRODUCT ( '3f21', '3f21', '', ( #18 ) ) ;
#85 = AXIS2_PLACEMENT_3D ( 'NONE', #155, #185, #252 ) ;
#86 = FACE_BOUND ( 'NONE', #264, .T. ) ;
#87 = ADVANCED_FACE ( 'NONE', ( #81 ), #210, .T. ) ;
#88 = LINE ( 'NONE', #206, #180 ) ;
#89 = ORIENTED_EDGE ( 'NONE', *, *, #17, .T. ) ;
#90 = ADVANCED_FACE ( 'NONE', ( #208 ), #177, .F. ) ;
#91 = AXIS2_PLACEMENT_3D ( 'NONE', #229, #116, #111 ) ;
#92 = DIRECTION ( 'NONE',  ( 0.000000000000000000, 0.000000000000000000, 1.000000000000000000 ) ) ;
#93 = CYLINDRICAL_SURFACE ( 'NONE', #165, 1.750000000000000222 ) ;
#94 = AXIS2_PLACEMENT_3D ( 'NONE', #95, #98, #258 ) ;
#95 = CARTESIAN_POINT ( 'NONE',  ( 0.000000000000000000, 0.000000000000000000, 0.000000000000000000 ) ) ;
#96 = LOCAL_TIME ( 14, 52, 26.00000000000000000, #265 ) ;
#97 = CALENDAR_DATE ( 2022, 7, 7 ) ;
#98 = DIRECTION ( 'NONE',  ( 0.000000000000000000, 0.000000000000000000, 1.000000000000000000 ) ) ;
#99 = DATE_AND_TIME ( #97, #213 ) ;
#100 = TOROIDAL_SURFACE ( 'NONE', #259, 1.950000000000000400, 0.2000000000000000111 ) ;
#101 = ORIENTED_EDGE ( 'NONE', *, *, #255, .F. ) ;
#102 = ORIENTED_EDGE ( 'NONE', *, *, #251, .T. ) ;
#103 = APPLICATION_CONTEXT ( 'configuration controlled 3d designs of mechanical parts and assemblies' ) ;
#104 = ORIENTED_EDGE ( 'NONE', *, *, #37, .T. ) ;
#105 = PERSON_AND_ORGANIZATION ( #158, #57 ) ;
#106 = CARTESIAN_POINT ( 'NONE',  ( 0.000000000000000000, 0.000000000000000000, 3.200000000000008171 ) ) ;
#107 = AXIS2_PLACEMENT_3D ( 'NONE', #249, #204, #61 ) ;
#108 = ORIENTED_EDGE ( 'NONE', *, *, #17, .F. ) ;
#109 = DIRECTION ( 'NONE',  ( -0.000000000000000000, -0.000000000000000000, -1.000000000000000000 ) ) ;
#110 = EDGE_CURVE ( 'NONE', #27, #9, #211, .T. ) ;
#111 = DIRECTION ( 'NONE',  ( -1.000000000000000000, 1.224646799147353207E-16, 0.000000000000000000 ) ) ;
#112 = CC_DESIGN_SECURITY_CLASSIFICATION ( #60, ( #290 ) ) ;
#113 = DIRECTION ( 'NONE',  ( 1.000000000000000000, 0.000000000000000000, 0.000000000000000000 ) ) ;
#114 = DIRECTION ( 'NONE',  ( 1.000000000000000000, 0.000000000000000000, 0.000000000000000000 ) ) ;
#115 = ADVANCED_FACE ( 'NONE', ( #183 ), #272, .T. ) ;
#116 = DIRECTION ( 'NONE',  ( 1.224646799147353207E-16, 1.000000000000000000, -0.000000000000000000 ) ) ;
#117 = DIRECTION ( 'NONE',  ( 0.000000000000000000, 0.000000000000000000, 1.000000000000000000 ) ) ;
#118 = DIRECTION ( 'NONE',  ( 1.000000000000000000, 0.000000000000000000, 0.000000000000000000 ) ) ;
#119 = CC_DESIGN_PERSON_AND_ORGANIZATION_ASSIGNMENT ( #268, #5, ( #290 ) ) ;
#120 = APPROVAL_STATUS ( 'not_yet_approved' ) ;
#121 = AXIS2_PLACEMENT_3D ( 'NONE', #12, #278, #113 ) ;
#122 = FACE_OUTER_BOUND ( 'NONE', #302, .T. ) ;
#123 = EDGE_CURVE ( 'NONE', #9, #6, #161, .T. ) ;
#124 = PERSON_AND_ORGANIZATION ( #158, #57 ) ;
#125 = EDGE_LOOP ( 'NONE', ( #150, #14, #196, #245 ) ) ;
#126 = AXIS2_PLACEMENT_3D ( 'NONE', #230, #66, #67 ) ;
#127 = VERTEX_POINT ( 'NONE', #301 ) ;
#128 = ORIENTED_EDGE ( 'NONE', *, *, #235, .T. ) ;
#129 = APPROVAL_PERSON_ORGANIZATION ( #191, #306, #239 ) ;
#130 = CARTESIAN_POINT ( 'NONE',  ( -1.750000000000000222, 0.000000000000000000, 3.200000000000008171 ) ) ;
#131 = MANIFOLD_SOLID_BREP ( 'Zaoblit1', #237 ) ;
#132 = ORIENTED_EDGE ( 'NONE', *, *, #282, .F. ) ;
#133 = VECTOR ( 'NONE', #305, 1000.000000000000000 ) ;
#134 = CC_DESIGN_APPROVAL ( #226, ( #60 ) ) ;
#135 = DIRECTION ( 'NONE',  ( -0.000000000000000000, -0.000000000000000000, -1.000000000000000000 ) ) ;
#136 = EDGE_CURVE ( 'NONE', #7, #198, #88, .T. ) ;
#137 = CARTESIAN_POINT ( 'NONE',  ( 0.000000000000000000, 0.000000000000000000, 3.000000000000000000 ) ) ;
#138 = CC_DESIGN_DATE_AND_TIME_ASSIGNMENT ( #193, #284, ( #60 ) ) ;
#139 = CARTESIAN_POINT ( 'NONE',  ( 0.000000000000000000, 0.000000000000000000, 0.000000000000000000 ) ) ;
#140 = CARTESIAN_POINT ( 'NONE',  ( 3.500000000000000444, 4.286263797015737088E-16, 0.000000000000000000 ) ) ;
#141 = PERSON_AND_ORGANIZATION_ROLE ( 'creator' ) ;
#142 = DIRECTION ( 'NONE',  ( 0.000000000000000000, 0.000000000000000000, 1.000000000000000000 ) ) ;
#143 = APPROVAL ( #242, 'NEURÈENÝ' ) ;
#144 = PERSON_AND_ORGANIZATION_ROLE ( 'design_owner' ) ;
#145 = AXIS2_PLACEMENT_3D ( 'NONE', #296, #203, #292 ) ;
#146 =( NAMED_UNIT ( * ) PLANE_ANGLE_UNIT ( ) SI_UNIT ( $, .RADIAN. ) );
#147 = VERTEX_POINT ( 'NONE', #273 ) ;
#148 = ORIENTED_EDGE ( 'NONE', *, *, #63, .F. ) ;
#149 = CALENDAR_DATE ( 2022, 7, 7 ) ;
#150 = ORIENTED_EDGE ( 'NONE', *, *, #136, .F. ) ;
#151 = ORIENTED_EDGE ( 'NONE', *, *, #123, .T. ) ;
#152 = ORIENTED_EDGE ( 'NONE', *, *, #63, .T. ) ;
#153 = CYLINDRICAL_SURFACE ( 'NONE', #224, 3.500000000000000444 ) ;
#154 = CARTESIAN_POINT ( 'NONE',  ( 0.000000000000000000, 0.000000000000000000, 3.000000000000000000 ) ) ;
#155 = CARTESIAN_POINT ( 'NONE',  ( 0.000000000000000000, 0.000000000000000000, 3.000000000000000000 ) ) ;
#156 = CARTESIAN_POINT ( 'NONE',  ( -1.750000000000000222, 0.000000000000000000, 203.0000000000000000 ) ) ;
#157 = DIRECTION ( 'NONE',  ( 1.000000000000000000, 0.000000000000000000, -0.000000000000000000 ) ) ;
#158 = PERSON ( 'NEURÈENÝ', 'NEURÈENÝ', 'NEURÈENÝ', ('NEURÈENÝ'), ('NEURÈENÝ'), ('NEURÈENÝ') ) ;
#159 =( GEOMETRIC_REPRESENTATION_CONTEXT ( 3 ) GLOBAL_UNCERTAINTY_ASSIGNED_CONTEXT ( ( #221 ) ) GLOBAL_UNIT_ASSIGNED_CONTEXT ( ( #192, #146, #189 ) ) REPRESENTATION_CONTEXT ( 'NONE', 'WORKASPACE' ) );
#160 = ADVANCED_FACE ( 'NONE', ( #86, #34 ), #181, .T. ) ;
#161 = CIRCLE ( 'NONE', #277, 1.950000000000000400 ) ;
#162 = CC_DESIGN_APPROVAL ( #143, ( #290 ) ) ;
#163 = PERSON_AND_ORGANIZATION ( #158, #57 ) ;
#164 = DIRECTION ( 'NONE',  ( 0.000000000000000000, 0.000000000000000000, 1.000000000000000000 ) ) ;
#165 = AXIS2_PLACEMENT_3D ( 'NONE', #262, #41, #236 ) ;
#166 = PERSON_AND_ORGANIZATION_ROLE ( 'design_supplier' ) ;
#167 = EDGE_LOOP ( 'NONE', ( #175, #108, #104, #79 ) ) ;
#168 = ORIENTED_EDGE ( 'NONE', *, *, #246, .T. ) ;
#169 = COORDINATED_UNIVERSAL_TIME_OFFSET ( 1, 0, .AHEAD. ) ;
#170 = ORIENTED_EDGE ( 'NONE', *, *, #110, .F. ) ;
#171 = CIRCLE ( 'NONE', #33, 1.750000000000000222 ) ;
#172 = APPROVAL_DATE_TIME ( #76, #226 ) ;
#173 = CARTESIAN_POINT ( 'NONE',  ( 1.750000000000000222, 2.143131898507868544E-16, 203.0000000000000000 ) ) ;
#174 = APPROVAL_ROLE ( '' ) ;
#175 = ORIENTED_EDGE ( 'NONE', *, *, #251, .F. ) ;
#176 = AXIS2_PLACEMENT_3D ( 'NONE', #16, #117, #1 ) ;
#177 = PLANE ( 'NONE',  #2 ) ;
#178 = CC_DESIGN_PERSON_AND_ORGANIZATION_ASSIGNMENT ( #124, #291, ( #60 ) ) ;
#179 = DIRECTION ( 'NONE',  ( -0.000000000000000000, -0.000000000000000000, -1.000000000000000000 ) ) ;
#180 = VECTOR ( 'NONE', #299, 1000.000000000000000 ) ;
#181 = PLANE ( 'NONE',  #85 ) ;
#182 = PRODUCT_DEFINITION_SHAPE ( 'NONE', 'NONE',  #71 ) ;
#183 = FACE_OUTER_BOUND ( 'NONE', #125, .T. ) ;
#184 = EDGE_CURVE ( 'NONE', #223, #147, #253, .T. ) ;
#185 = DIRECTION ( 'NONE',  ( 0.000000000000000000, 0.000000000000000000, 1.000000000000000000 ) ) ;
#186 = AXIS2_PLACEMENT_3D ( 'NONE', #270, #49, #247 ) ;
#187 = APPROVAL_DATE_TIME ( #3, #306 ) ;
#188 = CC_DESIGN_PERSON_AND_ORGANIZATION_ASSIGNMENT ( #163, #144, ( #84 ) ) ;
#189 =( NAMED_UNIT ( * ) SI_UNIT ( $, .STERADIAN. ) SOLID_ANGLE_UNIT ( ) );
#190 = CIRCLE ( 'NONE', #94, 3.500000000000000444 ) ;
#191 = PERSON_AND_ORGANIZATION ( #158, #57 ) ;
#192 =( LENGTH_UNIT ( ) NAMED_UNIT ( * ) SI_UNIT ( .MILLI., .METRE. ) );
#193 = DATE_AND_TIME ( #149, #238 ) ;
#194 = AXIS2_PLACEMENT_3D ( 'NONE', #254, #15, #13 ) ;
#195 = SHAPE_DEFINITION_REPRESENTATION ( #182, #285 ) ;
#196 = ORIENTED_EDGE ( 'NONE', *, *, #241, .T. ) ;
#197 = CC_DESIGN_DATE_AND_TIME_ASSIGNMENT ( #99, #288, ( #71 ) ) ;
#198 = VERTEX_POINT ( 'NONE', #207 ) ;
#199 = CIRCLE ( 'NONE', #52, 1.750000000000000222 ) ;
#200 = PLANE ( 'NONE',  #145 ) ;
#201 = CIRCLE ( 'NONE', #304, 1.750000000000000222 ) ;
#202 = EDGE_LOOP ( 'NONE', ( #168, #266 ) ) ;
#203 = DIRECTION ( 'NONE',  ( 0.000000000000000000, 0.000000000000000000, 1.000000000000000000 ) ) ;
#204 = DIRECTION ( 'NONE',  ( -0.000000000000000000, -0.000000000000000000, -1.000000000000000000 ) ) ;
#205 = AXIS2_PLACEMENT_3D ( 'NONE', #106, #250, #274 ) ;
#206 = CARTESIAN_POINT ( 'NONE',  ( 1.750000000000000222, 2.143131898507868544E-16, 203.0000000000000000 ) ) ;
#207 = CARTESIAN_POINT ( 'NONE',  ( 1.750000000000000222, 2.143131898507868544E-16, 3.200000000000008171 ) ) ;
#208 = FACE_OUTER_BOUND ( 'NONE', #8, .T. ) ;
#209 = ORIENTED_EDGE ( 'NONE', *, *, #184, .T. ) ;
#210 = CYLINDRICAL_SURFACE ( 'NONE', #263, 3.500000000000000444 ) ;
#211 = CIRCLE ( 'NONE', #91, 0.2000000000000000944 ) ;
#212 = CARTESIAN_POINT ( 'NONE',  ( 3.500000000000000444, 4.286263797015737088E-16, 3.000000000000000000 ) ) ;
#213 = LOCAL_TIME ( 14, 52, 26.00000000000000000, #232 ) ;
#214 = COORDINATED_UNIVERSAL_TIME_OFFSET ( 1, 0, .AHEAD. ) ;
#215 = APPROVAL_ROLE ( '' ) ;
#216 = DATE_AND_TIME ( #43, #22 ) ;
#217 = ORIENTED_EDGE ( 'NONE', *, *, #136, .T. ) ;
#218 = CIRCLE ( 'NONE', #186, 3.500000000000000444 ) ;
#219 = ADVANCED_FACE ( 'NONE', ( #300 ), #100, .F. ) ;
#220 = VERTEX_POINT ( 'NONE', #156 ) ;
#221 = UNCERTAINTY_MEASURE_WITH_UNIT (LENGTH_MEASURE( 1.000000000000000082E-05 ), #192, 'distance_accuracy_value', 'NONE');
#222 = ORIENTED_EDGE ( 'NONE', *, *, #241, .F. ) ;
#223 = VERTEX_POINT ( 'NONE', #140 ) ;
#224 = AXIS2_PLACEMENT_3D ( 'NONE', #137, #109, #55 ) ;
#225 = ORIENTED_EDGE ( 'NONE', *, *, #235, .F. ) ;
#226 = APPROVAL ( #24, 'NEURÈENÝ' ) ;
#227 = DIRECTION ( 'NONE',  ( -0.000000000000000000, -0.000000000000000000, -1.000000000000000000 ) ) ;
#228 = DIRECTION ( 'NONE',  ( 0.000000000000000000, 0.000000000000000000, 1.000000000000000000 ) ) ;
#229 = CARTESIAN_POINT ( 'NONE',  ( -1.950000000000000400, 2.388061258337339136E-16, 3.200000000000008171 ) ) ;
#230 = CARTESIAN_POINT ( 'NONE',  ( 0.000000000000000000, 0.000000000000000000, 3.000000000000000000 ) ) ;
#231 = DIRECTION ( 'NONE',  ( 1.000000000000000000, 0.000000000000000000, 0.000000000000000000 ) ) ;
#232 = COORDINATED_UNIVERSAL_TIME_OFFSET ( 1, 0, .AHEAD. ) ;
#233 = CIRCLE ( 'NONE', #194, 0.2000000000000000944 ) ;
#234 = APPLICATION_PROTOCOL_DEFINITION ( 'international standard', 'config_control_design', 1994, #65 ) ;
#235 = EDGE_CURVE ( 'NONE', #287, #127, #293, .T. ) ;
#236 = DIRECTION ( 'NONE',  ( -1.000000000000000000, 0.000000000000000000, 0.000000000000000000 ) ) ;
#237 = CLOSED_SHELL ( 'NONE', ( #219, #276, #78, #87, #160, #90, #115, #4, #19 ) ) ;
#238 = LOCAL_TIME ( 14, 52, 26.00000000000000000, #73 ) ;
#239 = APPROVAL_ROLE ( '' ) ;
#240 = ORIENTED_EDGE ( 'NONE', *, *, #297, .T. ) ;
#241 = EDGE_CURVE ( 'NONE', #220, #27, #307, .T. ) ;
#242 = APPROVAL_STATUS ( 'not_yet_approved' ) ;
#243 = ORIENTED_EDGE ( 'NONE', *, *, #123, .F. ) ;
#244 = PERSON_AND_ORGANIZATION ( #158, #57 ) ;
#245 = ORIENTED_EDGE ( 'NONE', *, *, #28, .T. ) ;
#246 = EDGE_CURVE ( 'NONE', #220, #7, #201, .T. ) ;
#247 = DIRECTION ( 'NONE',  ( 1.000000000000000000, 0.000000000000000000, 0.000000000000000000 ) ) ;
#248 = SECURITY_CLASSIFICATION_LEVEL ( 'unclassified' ) ;
#249 = CARTESIAN_POINT ( 'NONE',  ( 0.000000000000000000, 0.000000000000000000, 203.0000000000000000 ) ) ;
#250 = DIRECTION ( 'NONE',  ( 0.000000000000000000, 0.000000000000000000, 1.000000000000000000 ) ) ;
#251 = EDGE_CURVE ( 'NONE', #287, #223, #281, .T. ) ;
#252 = DIRECTION ( 'NONE',  ( 1.000000000000000000, 0.000000000000000000, -0.000000000000000000 ) ) ;
#253 = CIRCLE ( 'NONE', #121, 3.500000000000000444 ) ;
#254 = CARTESIAN_POINT ( 'NONE',  ( 1.950000000000000400, 0.000000000000000000, 3.200000000000008171 ) ) ;
#255 = EDGE_CURVE ( 'NONE', #147, #223, #190, .T. ) ;
#256 = DIRECTION ( 'NONE',  ( 0.000000000000000000, 0.000000000000000000, 1.000000000000000000 ) ) ;
#257 = CARTESIAN_POINT ( 'NONE',  ( 0.000000000000000000, 0.000000000000000000, 0.000000000000000000 ) ) ;
#258 = DIRECTION ( 'NONE',  ( 1.000000000000000000, 0.000000000000000000, 0.000000000000000000 ) ) ;
#259 = AXIS2_PLACEMENT_3D ( 'NONE', #275, #256, #59 ) ;
#260 = CARTESIAN_POINT ( 'NONE',  ( -1.750000000000000222, 0.000000000000000000, 203.0000000000000000 ) ) ;
#261 = DIRECTION ( 'NONE',  ( 1.000000000000000000, 0.000000000000000000, 0.000000000000000000 ) ) ;
#262 = CARTESIAN_POINT ( 'NONE',  ( 0.000000000000000000, 0.000000000000000000, 203.0000000000000000 ) ) ;
#263 = AXIS2_PLACEMENT_3D ( 'NONE', #154, #135, #11 ) ;
#264 = EDGE_LOOP ( 'NONE', ( #289, #151 ) ) ;
#265 = COORDINATED_UNIVERSAL_TIME_OFFSET ( 1, 0, .AHEAD. ) ;
#266 = ORIENTED_EDGE ( 'NONE', *, *, #282, .T. ) ;
#267 = CC_DESIGN_APPROVAL ( #306, ( #71 ) ) ;
#268 = PERSON_AND_ORGANIZATION ( #158, #57 ) ;
#269 = ORIENTED_EDGE ( 'NONE', *, *, #50, .F. ) ;
#270 = CARTESIAN_POINT ( 'NONE',  ( 0.000000000000000000, 0.000000000000000000, 3.000000000000000000 ) ) ;
#271 = EDGE_LOOP ( 'NONE', ( #44, #295, #269, #148 ) ) ;
#272 = CYLINDRICAL_SURFACE ( 'NONE', #107, 1.750000000000000222 ) ;
#273 = CARTESIAN_POINT ( 'NONE',  ( -3.500000000000000444, 0.000000000000000000, 0.000000000000000000 ) ) ;
#274 = DIRECTION ( 'NONE',  ( 1.000000000000000000, 0.000000000000000000, 0.000000000000000000 ) ) ;
#275 = CARTESIAN_POINT ( 'NONE',  ( 0.000000000000000000, 0.000000000000000000, 3.200000000000008171 ) ) ;
#276 = ADVANCED_FACE ( 'NONE', ( #122 ), #93, .T. ) ;
#277 = AXIS2_PLACEMENT_3D ( 'NONE', #31, #179, #114 ) ;
#278 = DIRECTION ( 'NONE',  ( 0.000000000000000000, 0.000000000000000000, 1.000000000000000000 ) ) ;
#279 = APPROVAL_PERSON_ORGANIZATION ( #244, #226, #174 ) ;
#280 = CALENDAR_DATE ( 2022, 7, 7 ) ;
#281 = LINE ( 'NONE', #212, #80 ) ;
#282 = EDGE_CURVE ( 'NONE', #7, #220, #75, .T. ) ;
#283 = CARTESIAN_POINT ( 'NONE',  ( 3.500000000000000444, 4.286263797015737088E-16, 3.000000000000000000 ) ) ;
#284 = DATE_TIME_ROLE ( 'classification_date' ) ;
#285 = ADVANCED_BREP_SHAPE_REPRESENTATION ( '3f21', ( #131, #21 ), #159 ) ;
#286 = CIRCLE ( 'NONE', #54, 1.950000000000000400 ) ;
#287 = VERTEX_POINT ( 'NONE', #283 ) ;
#288 = DATE_TIME_ROLE ( 'creation_date' ) ;
#289 = ORIENTED_EDGE ( 'NONE', *, *, #50, .T. ) ;
#290 = PRODUCT_DEFINITION_FORMATION_WITH_SPECIFIED_SOURCE ( 'LIBOVOLNÝ', '', #84, .NOT_KNOWN. ) ;
#291 = PERSON_AND_ORGANIZATION_ROLE ( 'classification_officer' ) ;
#292 = DIRECTION ( 'NONE',  ( 1.000000000000000000, 0.000000000000000000, -0.000000000000000000 ) ) ;
#293 = CIRCLE ( 'NONE', #126, 3.500000000000000444 ) ;
#294 = APPROVAL_DATE_TIME ( #216, #143 ) ;
#295 = ORIENTED_EDGE ( 'NONE', *, *, #110, .T. ) ;
#296 = CARTESIAN_POINT ( 'NONE',  ( 0.000000000000000000, 0.000000000000000000, 203.0000000000000000 ) ) ;
#297 = EDGE_CURVE ( 'NONE', #198, #27, #199, .T. ) ;
#298 = CARTESIAN_POINT ( 'NONE',  ( 0.000000000000000000, 0.000000000000000000, 3.200000000000008171 ) ) ;
#299 = DIRECTION ( 'NONE',  ( -0.000000000000000000, -0.000000000000000000, -1.000000000000000000 ) ) ;
#300 = FACE_OUTER_BOUND ( 'NONE', #271, .T. ) ;
#301 = CARTESIAN_POINT ( 'NONE',  ( -3.500000000000000444, 0.000000000000000000, 3.000000000000000000 ) ) ;
#302 = EDGE_LOOP ( 'NONE', ( #132, #217, #240, #222 ) ) ;
#303 = VECTOR ( 'NONE', #29, 1000.000000000000000 ) ;
#304 = AXIS2_PLACEMENT_3D ( 'NONE', #38, #164, #261 ) ;
#305 = DIRECTION ( 'NONE',  ( -0.000000000000000000, -0.000000000000000000, -1.000000000000000000 ) ) ;
#306 = APPROVAL ( #120, 'NEURÈENÝ' ) ;
#307 = LINE ( 'NONE', #260, #133 ) ;
ENDSEC;
END-ISO-10303-21;
