ISO-10303-21;
HEADER;
FILE_DESCRIPTION (( 'STEP AP203' ),
    '1' );
FILE_NAME ('4e9a.STEP',
    '2023-02-12T11:21:33',
    ( '' ),
    ( '' ),
    'SwSTEP 2.0',
    'SolidWorks 2019',
    '' );
FILE_SCHEMA (( 'CONFIG_CONTROL_DESIGN' ));
ENDSEC;

DATA;
#1 = DIRECTION ( 'NONE',  ( -1.000000000000000000, 0.000000000000000000, 0.000000000000000000 ) ) ;
#2 = DIRECTION ( 'NONE',  ( -1.000000000000000000, 0.000000000000000000, 0.000000000000000000 ) ) ;
#3 = EDGE_CURVE ( 'NONE', #167, #170, #89, .T. ) ;
#4 = CC_DESIGN_PERSON_AND_ORGANIZATION_ASSIGNMENT ( #106, #11, ( #125 ) ) ;
#5 = AXIS2_PLACEMENT_3D ( 'NONE', #86, #59, #200 ) ;
#6 = CIRCLE ( 'NONE', #81, 3.750000000000000000 ) ;
#7 = CIRCLE ( 'NONE', #203, 6.000000000000000888 ) ;
#8 = DATE_AND_TIME ( #214, #187 ) ;
#9 = VERTEX_POINT ( 'NONE', #15 ) ;
#10 = DIRECTION ( 'NONE',  ( -0.000000000000000000, -0.000000000000000000, -1.000000000000000000 ) ) ;
#11 = PERSON_AND_ORGANIZATION_ROLE ( 'creator' ) ;
#12 = AXIS2_PLACEMENT_3D ( 'NONE', #52, #91, #137 ) ;
#13 =( LENGTH_UNIT ( ) NAMED_UNIT ( * ) SI_UNIT ( .MILLI., .METRE. ) );
#14 = PLANE ( 'NONE',  #206 ) ;
#15 = CARTESIAN_POINT ( 'NONE',  ( -3.750000000000000000, 0.000000000000000000, 5.000000000000000000 ) ) ;
#16 = DIRECTION ( 'NONE',  ( 1.000000000000000000, 0.000000000000000000, 0.000000000000000000 ) ) ;
#17 = CIRCLE ( 'NONE', #5, 3.750000000000000000 ) ;
#18 = AXIS2_PLACEMENT_3D ( 'NONE', #158, #182, #2 ) ;
#19 = EDGE_CURVE ( 'NONE', #9, #226, #157, .T. ) ;
#20 = PERSON_AND_ORGANIZATION ( #193, #110 ) ;
#21 = ORIENTED_EDGE ( 'NONE', *, *, #164, .T. ) ;
#22 = ORIENTED_EDGE ( 'NONE', *, *, #123, .F. ) ;
#23 = DATE_AND_TIME ( #64, #241 ) ;
#24 = ADVANCED_FACE ( 'NONE', ( #179, #114 ), #14, .T. ) ;
#25 = ORIENTED_EDGE ( 'NONE', *, *, #3, .F. ) ;
#26 = AXIS2_PLACEMENT_3D ( 'NONE', #244, #209, #78 ) ;
#27 = CALENDAR_DATE ( 2023, 12, 2 ) ;
#28 = EDGE_LOOP ( 'NONE', ( #217, #150, #44, #70 ) ) ;
#29 = PLANE ( 'NONE',  #121 ) ;
#30 = CYLINDRICAL_SURFACE ( 'NONE', #246, 6.000000000000000888 ) ;
#31 = DIRECTION ( 'NONE',  ( 1.000000000000000000, 0.000000000000000000, -0.000000000000000000 ) ) ;
#32 = DIRECTION ( 'NONE',  ( -0.000000000000000000, -0.000000000000000000, -1.000000000000000000 ) ) ;
#33 = CARTESIAN_POINT ( 'NONE',  ( 0.000000000000000000, 0.000000000000000000, 0.000000000000000000 ) ) ;
#34 = APPROVAL_PERSON_ORGANIZATION ( #85, #35, #132 ) ;
#35 = APPROVAL ( #111, 'NEURÈENÝ' ) ;
#36 = DATE_AND_TIME ( #113, #71 ) ;
#37 = DIRECTION ( 'NONE',  ( 1.000000000000000000, 0.000000000000000000, 0.000000000000000000 ) ) ;
#38 = AXIS2_PLACEMENT_3D ( 'NONE', #96, #155, #234 ) ;
#39 = FACE_OUTER_BOUND ( 'NONE', #69, .T. ) ;
#40 = CIRCLE ( 'NONE', #210, 6.000000000000000888 ) ;
#41 = EDGE_CURVE ( 'NONE', #212, #68, #6, .T. ) ;
#42 = APPROVAL_STATUS ( 'not_yet_approved' ) ;
#43 = EDGE_CURVE ( 'NONE', #130, #147, #240, .T. ) ;
#44 = ORIENTED_EDGE ( 'NONE', *, *, #123, .T. ) ;
#45 = MANIFOLD_SOLID_BREP ( 'Pøidat vysunutím3', #232 ) ;
#46 = ORIENTED_EDGE ( 'NONE', *, *, #3, .T. ) ;
#47 = COORDINATED_UNIVERSAL_TIME_OFFSET ( 1, 0, .AHEAD. ) ;
#48 = APPLICATION_PROTOCOL_DEFINITION ( 'international standard', 'config_control_design', 1994, #175 ) ;
#49 = CALENDAR_DATE ( 2023, 12, 2 ) ;
#50 = VECTOR ( 'NONE', #133, 1000.000000000000000 ) ;
#51 = ORIENTED_EDGE ( 'NONE', *, *, #74, .T. ) ;
#52 = CARTESIAN_POINT ( 'NONE',  ( 0.000000000000000000, 0.000000000000000000, 5.000000000000000000 ) ) ;
#53 = DIRECTION ( 'NONE',  ( 1.000000000000000000, 0.000000000000000000, 0.000000000000000000 ) ) ;
#54 = COORDINATED_UNIVERSAL_TIME_OFFSET ( 1, 0, .AHEAD. ) ;
#55 = CARTESIAN_POINT ( 'NONE',  ( -3.750000000000000000, 0.000000000000000000, 250.0000000000000000 ) ) ;
#56 = APPLICATION_PROTOCOL_DEFINITION ( 'international standard', 'config_control_design', 1994, #127 ) ;
#57 = ADVANCED_FACE ( 'NONE', ( #39 ), #120, .T. ) ;
#58 = CYLINDRICAL_SURFACE ( 'NONE', #129, 3.750000000000000000 ) ;
#59 = DIRECTION ( 'NONE',  ( 0.000000000000000000, 0.000000000000000000, 1.000000000000000000 ) ) ;
#60 = DIRECTION ( 'NONE',  ( 0.000000000000000000, 0.000000000000000000, 1.000000000000000000 ) ) ;
#61 = CARTESIAN_POINT ( 'NONE',  ( 0.000000000000000000, 0.000000000000000000, 250.0000000000000000 ) ) ;
#62 = CARTESIAN_POINT ( 'NONE',  ( 0.000000000000000000, 0.000000000000000000, 0.000000000000000000 ) ) ;
#63 = AXIS2_PLACEMENT_3D ( 'NONE', #95, #239, #116 ) ;
#64 = CALENDAR_DATE ( 2023, 12, 2 ) ;
#65 = APPROVAL ( #42, 'NEURÈENÝ' ) ;
#66 = ORIENTED_EDGE ( 'NONE', *, *, #74, .F. ) ;
#67 = PRODUCT_DEFINITION ( 'NEZNÁMÝ', '', #125, #228 ) ;
#68 = VERTEX_POINT ( 'NONE', #142 ) ;
#69 = EDGE_LOOP ( 'NONE', ( #213, #185, #21, #172 ) ) ;
#70 = ORIENTED_EDGE ( 'NONE', *, *, #164, .F. ) ;
#71 = LOCAL_TIME ( 12, 21, 33.00000000000000000, #215 ) ;
#72 = DIRECTION ( 'NONE',  ( -0.000000000000000000, -0.000000000000000000, -1.000000000000000000 ) ) ;
#73 =( NAMED_UNIT ( * ) PLANE_ANGLE_UNIT ( ) SI_UNIT ( $, .RADIAN. ) );
#74 = EDGE_CURVE ( 'NONE', #167, #147, #100, .T. ) ;
#75 = FACE_OUTER_BOUND ( 'NONE', #229, .T. ) ;
#76 = SHAPE_DEFINITION_REPRESENTATION ( #104, #188 ) ;
#77 = ORIENTED_EDGE ( 'NONE', *, *, #43, .F. ) ;
#78 = DIRECTION ( 'NONE',  ( -1.000000000000000000, 0.000000000000000000, 0.000000000000000000 ) ) ;
#79 = EDGE_LOOP ( 'NONE', ( #249, #22 ) ) ;
#80 = ORIENTED_EDGE ( 'NONE', *, *, #41, .T. ) ;
#81 = AXIS2_PLACEMENT_3D ( 'NONE', #255, #159, #53 ) ;
#82 = CC_DESIGN_SECURITY_CLASSIFICATION ( #211, ( #125 ) ) ;
#83 = CARTESIAN_POINT ( 'NONE',  ( 0.000000000000000000, 0.000000000000000000, 0.000000000000000000 ) ) ;
#84 = DATE_TIME_ROLE ( 'classification_date' ) ;
#85 = PERSON_AND_ORGANIZATION ( #193, #110 ) ;
#86 = CARTESIAN_POINT ( 'NONE',  ( 0.000000000000000000, 0.000000000000000000, 250.0000000000000000 ) ) ;
#87 = FACE_OUTER_BOUND ( 'NONE', #207, .T. ) ;
#88 = ORIENTED_EDGE ( 'NONE', *, *, #162, .T. ) ;
#89 = CIRCLE ( 'NONE', #221, 6.000000000000000888 ) ;
#90 = PERSON_AND_ORGANIZATION ( #193, #110 ) ;
#91 = DIRECTION ( 'NONE',  ( 0.000000000000000000, 0.000000000000000000, 1.000000000000000000 ) ) ;
#92 = CARTESIAN_POINT ( 'NONE',  ( 6.000000000000000888, 7.347880794884120722E-16, 5.000000000000000000 ) ) ;
#93 = CARTESIAN_POINT ( 'NONE',  ( 0.000000000000000000, 0.000000000000000000, 5.000000000000000000 ) ) ;
#94 = PLANE ( 'NONE',  #38 ) ;
#95 = CARTESIAN_POINT ( 'NONE',  ( 0.000000000000000000, 0.000000000000000000, 5.000000000000000000 ) ) ;
#96 = CARTESIAN_POINT ( 'NONE',  ( 0.000000000000000000, 0.000000000000000000, 250.0000000000000000 ) ) ;
#97 = APPROVAL_PERSON_ORGANIZATION ( #20, #65, #126 ) ;
#98 = UNCERTAINTY_MEASURE_WITH_UNIT (LENGTH_MEASURE( 1.000000000000000082E-05 ), #13, 'distance_accuracy_value', 'NONE');
#99 = EDGE_LOOP ( 'NONE', ( #134, #88, #105, #66 ) ) ;
#100 = LINE ( 'NONE', #184, #180 ) ;
#101 = EDGE_CURVE ( 'NONE', #68, #212, #17, .T. ) ;
#102 = ADVANCED_FACE ( 'NONE', ( #202 ), #94, .T. ) ;
#103 = LOCAL_TIME ( 12, 21, 33.00000000000000000, #54 ) ;
#104 = PRODUCT_DEFINITION_SHAPE ( 'NONE', 'NONE',  #67 ) ;
#105 = ORIENTED_EDGE ( 'NONE', *, *, #43, .T. ) ;
#106 = PERSON_AND_ORGANIZATION ( #193, #110 ) ;
#107 = AXIS2_PLACEMENT_3D ( 'NONE', #62, #141, #225 ) ;
#108 = ADVANCED_FACE ( 'NONE', ( #135 ), #58, .T. ) ;
#109 = DATE_AND_TIME ( #27, #197 ) ;
#110 = ORGANIZATION ( 'NEURÈENÝ', 'NEURÈENÝ', '' ) ;
#111 = APPROVAL_STATUS ( 'not_yet_approved' ) ;
#112 = EDGE_LOOP ( 'NONE', ( #80, #194 ) ) ;
#113 = CALENDAR_DATE ( 2023, 12, 2 ) ;
#114 = FACE_OUTER_BOUND ( 'NONE', #192, .T. ) ;
#115 = CARTESIAN_POINT ( 'NONE',  ( -6.000000000000000888, 0.000000000000000000, 5.000000000000000000 ) ) ;
#116 = DIRECTION ( 'NONE',  ( 1.000000000000000000, 0.000000000000000000, 0.000000000000000000 ) ) ;
#117 = CARTESIAN_POINT ( 'NONE',  ( 0.000000000000000000, 0.000000000000000000, 5.000000000000000000 ) ) ;
#118 = DIRECTION ( 'NONE',  ( 0.000000000000000000, 0.000000000000000000, 1.000000000000000000 ) ) ;
#119 = CARTESIAN_POINT ( 'NONE',  ( 0.000000000000000000, 0.000000000000000000, 5.000000000000000000 ) ) ;
#120 = CYLINDRICAL_SURFACE ( 'NONE', #26, 3.750000000000000000 ) ;
#121 = AXIS2_PLACEMENT_3D ( 'NONE', #169, #251, #31 ) ;
#122 = CC_DESIGN_PERSON_AND_ORGANIZATION_ASSIGNMENT ( #201, #176, ( #128 ) ) ;
#123 = EDGE_CURVE ( 'NONE', #226, #9, #245, .T. ) ;
#124 = ORIENTED_EDGE ( 'NONE', *, *, #162, .F. ) ;
#125 = PRODUCT_DEFINITION_FORMATION_WITH_SPECIFIED_SOURCE ( 'LIBOVOLNÝ', '', #128, .NOT_KNOWN. ) ;
#126 = APPROVAL_ROLE ( '' ) ;
#127 = APPLICATION_CONTEXT ( 'configuration controlled 3d designs of mechanical parts and assemblies' ) ;
#128 = PRODUCT ( '4e9a', '4e9a', '', ( #136 ) ) ;
#129 = AXIS2_PLACEMENT_3D ( 'NONE', #61, #10, #1 ) ;
#130 = VERTEX_POINT ( 'NONE', #218 ) ;
#131 = ADVANCED_FACE ( 'NONE', ( #222 ), #30, .T. ) ;
#132 = APPROVAL_ROLE ( '' ) ;
#133 = DIRECTION ( 'NONE',  ( -0.000000000000000000, -0.000000000000000000, -1.000000000000000000 ) ) ;
#134 = ORIENTED_EDGE ( 'NONE', *, *, #149, .F. ) ;
#135 = FACE_OUTER_BOUND ( 'NONE', #28, .T. ) ;
#136 = MECHANICAL_CONTEXT ( 'NONE', #127, 'mechanical' ) ;
#137 = DIRECTION ( 'NONE',  ( 1.000000000000000000, 0.000000000000000000, 0.000000000000000000 ) ) ;
#138 = AXIS2_PLACEMENT_3D ( 'NONE', #33, #233, #196 ) ;
#139 = CARTESIAN_POINT ( 'NONE',  ( -6.000000000000000888, 0.000000000000000000, 0.000000000000000000 ) ) ;
#140 = PERSON_AND_ORGANIZATION ( #193, #110 ) ;
#141 = DIRECTION ( 'NONE',  ( 0.000000000000000000, 0.000000000000000000, 1.000000000000000000 ) ) ;
#142 = CARTESIAN_POINT ( 'NONE',  ( 3.750000000000000000, 4.592425496802573972E-16, 250.0000000000000000 ) ) ;
#143 = CC_DESIGN_APPROVAL ( #65, ( #125 ) ) ;
#144 = APPROVAL_PERSON_ORGANIZATION ( #168, #160, #152 ) ;
#145 = CC_DESIGN_DATE_AND_TIME_ASSIGNMENT ( #109, #84, ( #211 ) ) ;
#146 = ADVANCED_FACE ( 'NONE', ( #75 ), #242, .T. ) ;
#147 = VERTEX_POINT ( 'NONE', #139 ) ;
#148 =( GEOMETRIC_REPRESENTATION_CONTEXT ( 3 ) GLOBAL_UNCERTAINTY_ASSIGNED_CONTEXT ( ( #98 ) ) GLOBAL_UNIT_ASSIGNED_CONTEXT ( ( #13, #73, #230 ) ) REPRESENTATION_CONTEXT ( 'NONE', 'WORKASPACE' ) );
#149 = EDGE_CURVE ( 'NONE', #170, #167, #40, .T. ) ;
#150 = ORIENTED_EDGE ( 'NONE', *, *, #177, .T. ) ;
#151 = APPROVAL_DATE_TIME ( #195, #65 ) ;
#152 = APPROVAL_ROLE ( '' ) ;
#153 = COORDINATED_UNIVERSAL_TIME_OFFSET ( 1, 0, .AHEAD. ) ;
#154 = ORIENTED_EDGE ( 'NONE', *, *, #191, .T. ) ;
#155 = DIRECTION ( 'NONE',  ( 0.000000000000000000, 0.000000000000000000, 1.000000000000000000 ) ) ;
#156 = LINE ( 'NONE', #173, #50 ) ;
#157 = CIRCLE ( 'NONE', #63, 3.750000000000000000 ) ;
#158 = CARTESIAN_POINT ( 'NONE',  ( 0.000000000000000000, 0.000000000000000000, 5.000000000000000000 ) ) ;
#159 = DIRECTION ( 'NONE',  ( 0.000000000000000000, 0.000000000000000000, 1.000000000000000000 ) ) ;
#160 = APPROVAL ( #252, 'NEURÈENÝ' ) ;
#161 = DATE_TIME_ROLE ( 'creation_date' ) ;
#162 = EDGE_CURVE ( 'NONE', #170, #130, #171, .T. ) ;
#163 = VECTOR ( 'NONE', #32, 1000.000000000000000 ) ;
#164 = EDGE_CURVE ( 'NONE', #212, #9, #237, .T. ) ;
#165 = PRODUCT_RELATED_PRODUCT_CATEGORY ( 'detail', '', ( #128 ) ) ;
#166 = PERSON_AND_ORGANIZATION_ROLE ( 'design_supplier' ) ;
#167 = VERTEX_POINT ( 'NONE', #115 ) ;
#168 = PERSON_AND_ORGANIZATION ( #193, #110 ) ;
#169 = CARTESIAN_POINT ( 'NONE',  ( 0.000000000000000000, 0.000000000000000000, 0.000000000000000000 ) ) ;
#170 = VERTEX_POINT ( 'NONE', #174 ) ;
#171 = LINE ( 'NONE', #92, #186 ) ;
#172 = ORIENTED_EDGE ( 'NONE', *, *, #19, .T. ) ;
#173 = CARTESIAN_POINT ( 'NONE',  ( 3.750000000000000000, 4.592425496802573972E-16, 250.0000000000000000 ) ) ;
#174 = CARTESIAN_POINT ( 'NONE',  ( 6.000000000000000888, 7.347880794884120722E-16, 5.000000000000000000 ) ) ;
#175 = APPLICATION_CONTEXT ( 'configuration controlled 3d designs of mechanical parts and assemblies' ) ;
#176 = PERSON_AND_ORGANIZATION_ROLE ( 'design_owner' ) ;
#177 = EDGE_CURVE ( 'NONE', #68, #226, #156, .T. ) ;
#178 = CARTESIAN_POINT ( 'NONE',  ( 0.000000000000000000, 0.000000000000000000, 5.000000000000000000 ) ) ;
#179 = FACE_BOUND ( 'NONE', #79, .T. ) ;
#180 = VECTOR ( 'NONE', #243, 1000.000000000000000 ) ;
#181 = APPROVAL_DATE_TIME ( #36, #160 ) ;
#182 = DIRECTION ( 'NONE',  ( -0.000000000000000000, -0.000000000000000000, -1.000000000000000000 ) ) ;
#183 = DIRECTION ( 'NONE',  ( 1.000000000000000000, 0.000000000000000000, -0.000000000000000000 ) ) ;
#184 = CARTESIAN_POINT ( 'NONE',  ( -6.000000000000000888, 0.000000000000000000, 5.000000000000000000 ) ) ;
#185 = ORIENTED_EDGE ( 'NONE', *, *, #41, .F. ) ;
#186 = VECTOR ( 'NONE', #72, 1000.000000000000000 ) ;
#187 = LOCAL_TIME ( 12, 21, 33.00000000000000000, #153 ) ;
#188 = ADVANCED_BREP_SHAPE_REPRESENTATION ( '4e9a', ( #45, #138 ), #148 ) ;
#189 = CC_DESIGN_PERSON_AND_ORGANIZATION_ASSIGNMENT ( #250, #231, ( #211 ) ) ;
#190 = ORIENTED_EDGE ( 'NONE', *, *, #191, .F. ) ;
#191 = EDGE_CURVE ( 'NONE', #147, #130, #7, .T. ) ;
#192 = EDGE_LOOP ( 'NONE', ( #46, #227 ) ) ;
#193 = PERSON ( 'NEURÈENÝ', 'NEURÈENÝ', 'NEURÈENÝ', ('NEURÈENÝ'), ('NEURÈENÝ'), ('NEURÈENÝ') ) ;
#194 = ORIENTED_EDGE ( 'NONE', *, *, #101, .T. ) ;
#195 = DATE_AND_TIME ( #49, #103 ) ;
#196 = DIRECTION ( 'NONE',  ( 1.000000000000000000, 0.000000000000000000, 0.000000000000000000 ) ) ;
#197 = LOCAL_TIME ( 12, 21, 33.00000000000000000, #47 ) ;
#198 = DIRECTION ( 'NONE',  ( 0.000000000000000000, 0.000000000000000000, 1.000000000000000000 ) ) ;
#199 = CARTESIAN_POINT ( 'NONE',  ( 3.750000000000000000, 4.592425496802573972E-16, 5.000000000000000000 ) ) ;
#200 = DIRECTION ( 'NONE',  ( 1.000000000000000000, 0.000000000000000000, 0.000000000000000000 ) ) ;
#201 = PERSON_AND_ORGANIZATION ( #193, #110 ) ;
#202 = FACE_OUTER_BOUND ( 'NONE', #112, .T. ) ;
#203 = AXIS2_PLACEMENT_3D ( 'NONE', #83, #198, #238 ) ;
#204 = COORDINATED_UNIVERSAL_TIME_OFFSET ( 1, 0, .AHEAD. ) ;
#205 = CC_DESIGN_APPROVAL ( #160, ( #211 ) ) ;
#206 = AXIS2_PLACEMENT_3D ( 'NONE', #93, #118, #183 ) ;
#207 = EDGE_LOOP ( 'NONE', ( #190, #77 ) ) ;
#208 = CC_DESIGN_PERSON_AND_ORGANIZATION_ASSIGNMENT ( #140, #224, ( #67 ) ) ;
#209 = DIRECTION ( 'NONE',  ( -0.000000000000000000, -0.000000000000000000, -1.000000000000000000 ) ) ;
#210 = AXIS2_PLACEMENT_3D ( 'NONE', #119, #254, #37 ) ;
#211 = SECURITY_CLASSIFICATION ( '', '', #219 ) ;
#212 = VERTEX_POINT ( 'NONE', #235 ) ;
#213 = ORIENTED_EDGE ( 'NONE', *, *, #177, .F. ) ;
#214 = CALENDAR_DATE ( 2023, 12, 2 ) ;
#215 = COORDINATED_UNIVERSAL_TIME_OFFSET ( 1, 0, .AHEAD. ) ;
#216 = APPROVAL_DATE_TIME ( #8, #35 ) ;
#217 = ORIENTED_EDGE ( 'NONE', *, *, #101, .F. ) ;
#218 = CARTESIAN_POINT ( 'NONE',  ( 6.000000000000000888, 7.347880794884120722E-16, 0.000000000000000000 ) ) ;
#219 = SECURITY_CLASSIFICATION_LEVEL ( 'unclassified' ) ;
#220 = DIRECTION ( 'NONE',  ( -0.000000000000000000, -0.000000000000000000, -1.000000000000000000 ) ) ;
#221 = AXIS2_PLACEMENT_3D ( 'NONE', #117, #60, #16 ) ;
#222 = FACE_OUTER_BOUND ( 'NONE', #99, .T. ) ;
#223 = DIRECTION ( 'NONE',  ( -1.000000000000000000, 0.000000000000000000, 0.000000000000000000 ) ) ;
#224 = PERSON_AND_ORGANIZATION_ROLE ( 'creator' ) ;
#225 = DIRECTION ( 'NONE',  ( 1.000000000000000000, 0.000000000000000000, 0.000000000000000000 ) ) ;
#226 = VERTEX_POINT ( 'NONE', #199 ) ;
#227 = ORIENTED_EDGE ( 'NONE', *, *, #149, .T. ) ;
#228 = DESIGN_CONTEXT ( 'detailed design', #175, 'design' ) ;
#229 = EDGE_LOOP ( 'NONE', ( #124, #25, #51, #154 ) ) ;
#230 =( NAMED_UNIT ( * ) SI_UNIT ( $, .STERADIAN. ) SOLID_ANGLE_UNIT ( ) );
#231 = PERSON_AND_ORGANIZATION_ROLE ( 'classification_officer' ) ;
#232 = CLOSED_SHELL ( 'NONE', ( #108, #131, #146, #24, #253, #57, #102 ) ) ;
#233 = DIRECTION ( 'NONE',  ( 0.000000000000000000, 0.000000000000000000, 1.000000000000000000 ) ) ;
#234 = DIRECTION ( 'NONE',  ( 1.000000000000000000, 0.000000000000000000, -0.000000000000000000 ) ) ;
#235 = CARTESIAN_POINT ( 'NONE',  ( -3.750000000000000000, 0.000000000000000000, 250.0000000000000000 ) ) ;
#236 = CC_DESIGN_DATE_AND_TIME_ASSIGNMENT ( #23, #161, ( #67 ) ) ;
#237 = LINE ( 'NONE', #55, #163 ) ;
#238 = DIRECTION ( 'NONE',  ( 1.000000000000000000, 0.000000000000000000, 0.000000000000000000 ) ) ;
#239 = DIRECTION ( 'NONE',  ( 0.000000000000000000, 0.000000000000000000, 1.000000000000000000 ) ) ;
#240 = CIRCLE ( 'NONE', #107, 6.000000000000000888 ) ;
#241 = LOCAL_TIME ( 12, 21, 33.00000000000000000, #204 ) ;
#242 = CYLINDRICAL_SURFACE ( 'NONE', #18, 6.000000000000000888 ) ;
#243 = DIRECTION ( 'NONE',  ( -0.000000000000000000, -0.000000000000000000, -1.000000000000000000 ) ) ;
#244 = CARTESIAN_POINT ( 'NONE',  ( 0.000000000000000000, 0.000000000000000000, 250.0000000000000000 ) ) ;
#245 = CIRCLE ( 'NONE', #12, 3.750000000000000000 ) ;
#246 = AXIS2_PLACEMENT_3D ( 'NONE', #178, #220, #223 ) ;
#247 = CC_DESIGN_PERSON_AND_ORGANIZATION_ASSIGNMENT ( #90, #166, ( #125 ) ) ;
#248 = CC_DESIGN_APPROVAL ( #35, ( #67 ) ) ;
#249 = ORIENTED_EDGE ( 'NONE', *, *, #19, .F. ) ;
#250 = PERSON_AND_ORGANIZATION ( #193, #110 ) ;
#251 = DIRECTION ( 'NONE',  ( 0.000000000000000000, 0.000000000000000000, 1.000000000000000000 ) ) ;
#252 = APPROVAL_STATUS ( 'not_yet_approved' ) ;
#253 = ADVANCED_FACE ( 'NONE', ( #87 ), #29, .F. ) ;
#254 = DIRECTION ( 'NONE',  ( 0.000000000000000000, 0.000000000000000000, 1.000000000000000000 ) ) ;
#255 = CARTESIAN_POINT ( 'NONE',  ( 0.000000000000000000, 0.000000000000000000, 250.0000000000000000 ) ) ;
ENDSEC;
END-ISO-10303-21;
