ISO-10303-21;
HEADER;
FILE_DESCRIPTION (( 'STEP AP203' ),
    '1' );
FILE_NAME ('8abc.STEP',
    '2022-07-07T12:46:41',
    ( '' ),
    ( '' ),
    'SwSTEP 2.0',
    'SolidWorks 2019',
    '' );
FILE_SCHEMA (( 'CONFIG_CONTROL_DESIGN' ));
ENDSEC;

DATA;
#1 = AXIS2_PLACEMENT_3D ( 'NONE', #265, #294, #99 ) ;
#2 = FACE_OUTER_BOUND ( 'NONE', #128, .T. ) ;
#3 = CIRCLE ( 'NONE', #284, 5.000000000000000000 ) ;
#4 = CYLINDRICAL_SURFACE ( 'NONE', #138, 5.000000000000000000 ) ;
#5 = PRODUCT ( '8abc', '8abc', '', ( #129 ) ) ;
#6 = FACE_OUTER_BOUND ( 'NONE', #141, .T. ) ;
#7 = VERTEX_POINT ( 'NONE', #162 ) ;
#8 = CARTESIAN_POINT ( 'NONE',  ( -2.700000000000000178, 3.306546357697853733E-16, 3.000000000000004441 ) ) ;
#9 = DIRECTION ( 'NONE',  ( 0.000000000000000000, 0.000000000000000000, 1.000000000000000000 ) ) ;
#10 = CARTESIAN_POINT ( 'NONE',  ( 5.000000000000000000, 6.123233995736766282E-16, 3.000000000000000000 ) ) ;
#11 = CARTESIAN_POINT ( 'NONE',  ( 0.000000000000000000, 0.000000000000000000, 203.0000000000000000 ) ) ;
#12 = CYLINDRICAL_SURFACE ( 'NONE', #153, 2.500000000000000000 ) ;
#13 = DIRECTION ( 'NONE',  ( 0.000000000000000000, 0.000000000000000000, -1.000000000000000000 ) ) ;
#14 = EDGE_CURVE ( 'NONE', #222, #260, #296, .T. ) ;
#15 = ORIENTED_EDGE ( 'NONE', *, *, #132, .T. ) ;
#16 = CARTESIAN_POINT ( 'NONE',  ( 2.700000000000000178, 0.000000000000000000, 3.000000000000004441 ) ) ;
#17 = DIRECTION ( 'NONE',  ( 0.000000000000000000, 0.000000000000000000, 1.000000000000000000 ) ) ;
#18 = COORDINATED_UNIVERSAL_TIME_OFFSET ( 1, 0, .AHEAD. ) ;
#19 = AXIS2_PLACEMENT_3D ( 'NONE', #278, #17, #155 ) ;
#20 = PERSON ( 'NEURÈENÝ', 'NEURÈENÝ', 'NEURÈENÝ', ('NEURÈENÝ'), ('NEURÈENÝ'), ('NEURÈENÝ') ) ;
#21 = CARTESIAN_POINT ( 'NONE',  ( 2.500000000000000000, 3.061616997868383141E-16, 203.0000000000000000 ) ) ;
#22 = DIRECTION ( 'NONE',  ( 1.000000000000000000, 0.000000000000000000, 0.000000000000000000 ) ) ;
#23 = APPROVAL_ROLE ( '' ) ;
#24 =( GEOMETRIC_REPRESENTATION_CONTEXT ( 3 ) GLOBAL_UNCERTAINTY_ASSIGNED_CONTEXT ( ( #151 ) ) GLOBAL_UNIT_ASSIGNED_CONTEXT ( ( #26, #97, #126 ) ) REPRESENTATION_CONTEXT ( 'NONE', 'WORKASPACE' ) );
#25 = FACE_OUTER_BOUND ( 'NONE', #248, .T. ) ;
#26 =( LENGTH_UNIT ( ) NAMED_UNIT ( * ) SI_UNIT ( .MILLI., .METRE. ) );
#27 = CC_DESIGN_PERSON_AND_ORGANIZATION_ASSIGNMENT ( #203, #80, ( #5 ) ) ;
#28 = DIRECTION ( 'NONE',  ( -0.000000000000000000, -0.000000000000000000, -1.000000000000000000 ) ) ;
#29 = ORIENTED_EDGE ( 'NONE', *, *, #130, .F. ) ;
#30 = CARTESIAN_POINT ( 'NONE',  ( 0.000000000000000000, 0.000000000000000000, 0.000000000000000000 ) ) ;
#31 = DIRECTION ( 'NONE',  ( 0.000000000000000000, 0.000000000000000000, 1.000000000000000000 ) ) ;
#32 = DIRECTION ( 'NONE',  ( 1.000000000000000000, 0.000000000000000000, 0.000000000000000000 ) ) ;
#33 = ADVANCED_BREP_SHAPE_REPRESENTATION ( '8abc', ( #282, #43 ), #24 ) ;
#34 = ORIENTED_EDGE ( 'NONE', *, *, #211, .F. ) ;
#35 = LOCAL_TIME ( 14, 46, 41.00000000000000000, #134 ) ;
#36 = CARTESIAN_POINT ( 'NONE',  ( 0.000000000000000000, 0.000000000000000000, 0.000000000000000000 ) ) ;
#37 = EDGE_LOOP ( 'NONE', ( #38, #46, #76, #273 ) ) ;
#38 = ORIENTED_EDGE ( 'NONE', *, *, #82, .F. ) ;
#39 = VERTEX_POINT ( 'NONE', #16 ) ;
#40 = LOCAL_TIME ( 14, 46, 41.00000000000000000, #18 ) ;
#41 = CC_DESIGN_PERSON_AND_ORGANIZATION_ASSIGNMENT ( #104, #176, ( #281 ) ) ;
#42 = DATE_TIME_ROLE ( 'classification_date' ) ;
#43 = AXIS2_PLACEMENT_3D ( 'NONE', #36, #9, #71 ) ;
#44 = TOROIDAL_SURFACE ( 'NONE', #275, 2.700000000000000178, 0.2000000000000000111 ) ;
#45 = EDGE_CURVE ( 'NONE', #7, #238, #158, .T. ) ;
#46 = ORIENTED_EDGE ( 'NONE', *, *, #192, .T. ) ;
#47 = CARTESIAN_POINT ( 'NONE',  ( -2.700000000000000178, 3.306546357697853733E-16, 3.200000000000008171 ) ) ;
#48 = PERSON_AND_ORGANIZATION ( #20, #84 ) ;
#49 = FACE_OUTER_BOUND ( 'NONE', #286, .T. ) ;
#50 = CARTESIAN_POINT ( 'NONE',  ( 2.700000000000000178, 0.000000000000000000, 3.200000000000008171 ) ) ;
#51 = DESIGN_CONTEXT ( 'detailed design', #64, 'design' ) ;
#52 = DIRECTION ( 'NONE',  ( 1.224646799147353207E-16, 1.000000000000000000, -0.000000000000000000 ) ) ;
#53 = CARTESIAN_POINT ( 'NONE',  ( 2.500000000000000000, 3.061616997868383141E-16, 3.200000000000008171 ) ) ;
#54 = CYLINDRICAL_SURFACE ( 'NONE', #215, 2.500000000000000000 ) ;
#55 = COORDINATED_UNIVERSAL_TIME_OFFSET ( 1, 0, .AHEAD. ) ;
#56 = CIRCLE ( 'NONE', #115, 0.2000000000000000944 ) ;
#57 = ORIENTED_EDGE ( 'NONE', *, *, #132, .F. ) ;
#58 = ORIENTED_EDGE ( 'NONE', *, *, #211, .T. ) ;
#59 = CIRCLE ( 'NONE', #112, 5.000000000000000000 ) ;
#60 = CC_DESIGN_PERSON_AND_ORGANIZATION_ASSIGNMENT ( #302, #161, ( #280 ) ) ;
#61 = DIRECTION ( 'NONE',  ( 1.000000000000000000, 0.000000000000000000, 0.000000000000000000 ) ) ;
#62 = CLOSED_SHELL ( 'NONE', ( #187, #180, #113, #209, #150, #143, #66, #86, #190 ) ) ;
#63 = ORIENTED_EDGE ( 'NONE', *, *, #164, .T. ) ;
#64 = APPLICATION_CONTEXT ( 'configuration controlled 3d designs of mechanical parts and assemblies' ) ;
#65 = EDGE_CURVE ( 'NONE', #39, #202, #169, .T. ) ;
#66 = ADVANCED_FACE ( 'NONE', ( #254 ), #12, .T. ) ;
#67 = AXIS2_PLACEMENT_3D ( 'NONE', #103, #170, #118 ) ;
#68 = CARTESIAN_POINT ( 'NONE',  ( 5.000000000000000000, 6.123233995736766282E-16, 0.000000000000000000 ) ) ;
#69 = EDGE_LOOP ( 'NONE', ( #199, #15 ) ) ;
#70 = DIRECTION ( 'NONE',  ( -0.000000000000000000, -0.000000000000000000, -1.000000000000000000 ) ) ;
#71 = DIRECTION ( 'NONE',  ( 1.000000000000000000, 0.000000000000000000, 0.000000000000000000 ) ) ;
#72 = EDGE_CURVE ( 'NONE', #260, #222, #225, .T. ) ;
#73 = LINE ( 'NONE', #10, #147 ) ;
#74 = AXIS2_PLACEMENT_3D ( 'NONE', #11, #246, #239 ) ;
#75 = DIRECTION ( 'NONE',  ( -1.000000000000000000, 1.224646799147353207E-16, 0.000000000000000000 ) ) ;
#76 = ORIENTED_EDGE ( 'NONE', *, *, #306, .T. ) ;
#77 = DIRECTION ( 'NONE',  ( 1.000000000000000000, 0.000000000000000000, 0.000000000000000000 ) ) ;
#78 = FACE_BOUND ( 'NONE', #69, .T. ) ;
#79 = VERTEX_POINT ( 'NONE', #245 ) ;
#80 = PERSON_AND_ORGANIZATION_ROLE ( 'design_owner' ) ;
#81 = CC_DESIGN_PERSON_AND_ORGANIZATION_ASSIGNMENT ( #159, #249, ( #257 ) ) ;
#82 = EDGE_CURVE ( 'NONE', #79, #7, #191, .T. ) ;
#83 = ORIENTED_EDGE ( 'NONE', *, *, #250, .T. ) ;
#84 = ORGANIZATION ( 'NEURÈENÝ', 'NEURÈENÝ', '' ) ;
#85 = CALENDAR_DATE ( 2022, 7, 7 ) ;
#86 = ADVANCED_FACE ( 'NONE', ( #201 ), #262, .T. ) ;
#87 = ORIENTED_EDGE ( 'NONE', *, *, #261, .F. ) ;
#88 = APPROVAL_ROLE ( '' ) ;
#89 = VECTOR ( 'NONE', #28, 1000.000000000000000 ) ;
#90 = CC_DESIGN_APPROVAL ( #168, ( #280 ) ) ;
#91 = CC_DESIGN_PERSON_AND_ORGANIZATION_ASSIGNMENT ( #227, #182, ( #280 ) ) ;
#92 = CYLINDRICAL_SURFACE ( 'NONE', #252, 5.000000000000000000 ) ;
#93 = PLANE ( 'NONE',  #220 ) ;
#94 = APPROVAL_ROLE ( '' ) ;
#95 = CARTESIAN_POINT ( 'NONE',  ( 2.500000000000000000, 3.061616997868383141E-16, 203.0000000000000000 ) ) ;
#96 = ORIENTED_EDGE ( 'NONE', *, *, #82, .T. ) ;
#97 =( NAMED_UNIT ( * ) PLANE_ANGLE_UNIT ( ) SI_UNIT ( $, .RADIAN. ) );
#98 = PRODUCT_DEFINITION_SHAPE ( 'NONE', 'NONE',  #281 ) ;
#99 = DIRECTION ( 'NONE',  ( 1.000000000000000000, 0.000000000000000000, -0.000000000000000000 ) ) ;
#100 = ORIENTED_EDGE ( 'NONE', *, *, #204, .T. ) ;
#101 = DATE_AND_TIME ( #269, #127 ) ;
#102 = CIRCLE ( 'NONE', #74, 2.500000000000000000 ) ;
#103 = CARTESIAN_POINT ( 'NONE',  ( 0.000000000000000000, 0.000000000000000000, 3.200000000000008171 ) ) ;
#104 = PERSON_AND_ORGANIZATION ( #20, #84 ) ;
#105 = VERTEX_POINT ( 'NONE', #68 ) ;
#106 = DIRECTION ( 'NONE',  ( 0.000000000000000000, 0.000000000000000000, 1.000000000000000000 ) ) ;
#107 = DIRECTION ( 'NONE',  ( 1.000000000000000000, 0.000000000000000000, 0.000000000000000000 ) ) ;
#108 = APPROVAL_DATE_TIME ( #277, #290 ) ;
#109 = DIRECTION ( 'NONE',  ( -0.000000000000000000, -0.000000000000000000, -1.000000000000000000 ) ) ;
#110 = EDGE_LOOP ( 'NONE', ( #63, #263 ) ) ;
#111 = APPROVAL_STATUS ( 'not_yet_approved' ) ;
#112 = AXIS2_PLACEMENT_3D ( 'NONE', #267, #242, #124 ) ;
#113 = ADVANCED_FACE ( 'NONE', ( #243 ), #92, .T. ) ;
#114 = CC_DESIGN_DATE_AND_TIME_ASSIGNMENT ( #279, #42, ( #257 ) ) ;
#115 = AXIS2_PLACEMENT_3D ( 'NONE', #47, #52, #75 ) ;
#116 = CC_DESIGN_APPROVAL ( #290, ( #257 ) ) ;
#117 = DIRECTION ( 'NONE',  ( -0.000000000000000000, -0.000000000000000000, -1.000000000000000000 ) ) ;
#118 = DIRECTION ( 'NONE',  ( 1.000000000000000000, 0.000000000000000000, 0.000000000000000000 ) ) ;
#119 = APPROVAL_PERSON_ORGANIZATION ( #256, #290, #88 ) ;
#120 = DIRECTION ( 'NONE',  ( 1.000000000000000000, 0.000000000000000000, -0.000000000000000000 ) ) ;
#121 = CC_DESIGN_DATE_AND_TIME_ASSIGNMENT ( #244, #288, ( #281 ) ) ;
#122 = DIRECTION ( 'NONE',  ( -0.000000000000000000, -0.000000000000000000, -1.000000000000000000 ) ) ;
#123 = VERTEX_POINT ( 'NONE', #21 ) ;
#124 = DIRECTION ( 'NONE',  ( 1.000000000000000000, 0.000000000000000000, 0.000000000000000000 ) ) ;
#125 = CARTESIAN_POINT ( 'NONE',  ( -2.500000000000000000, 0.000000000000000000, 203.0000000000000000 ) ) ;
#126 =( NAMED_UNIT ( * ) SI_UNIT ( $, .STERADIAN. ) SOLID_ANGLE_UNIT ( ) );
#127 = LOCAL_TIME ( 14, 46, 41.00000000000000000, #264 ) ;
#128 = EDGE_LOOP ( 'NONE', ( #131, #34, #241, #271 ) ) ;
#129 = MECHANICAL_CONTEXT ( 'NONE', #230, 'mechanical' ) ;
#130 = EDGE_CURVE ( 'NONE', #222, #202, #56, .T. ) ;
#131 = ORIENTED_EDGE ( 'NONE', *, *, #192, .F. ) ;
#132 = EDGE_CURVE ( 'NONE', #202, #39, #289, .T. ) ;
#133 = ORIENTED_EDGE ( 'NONE', *, *, #157, .T. ) ;
#134 = COORDINATED_UNIVERSAL_TIME_OFFSET ( 1, 0, .AHEAD. ) ;
#135 = CARTESIAN_POINT ( 'NONE',  ( 0.000000000000000000, 0.000000000000000000, 3.000000000000000000 ) ) ;
#136 = AXIS2_PLACEMENT_3D ( 'NONE', #50, #146, #13 ) ;
#137 = CALENDAR_DATE ( 2022, 7, 7 ) ;
#138 = AXIS2_PLACEMENT_3D ( 'NONE', #268, #295, #196 ) ;
#139 = APPROVAL_PERSON_ORGANIZATION ( #48, #168, #23 ) ;
#140 = LINE ( 'NONE', #95, #89 ) ;
#141 = EDGE_LOOP ( 'NONE', ( #272, #299 ) ) ;
#142 = CARTESIAN_POINT ( 'NONE',  ( 0.000000000000000000, 0.000000000000000000, 3.000000000000000000 ) ) ;
#143 = ADVANCED_FACE ( 'NONE', ( #6 ), #174, .F. ) ;
#144 = APPROVAL_STATUS ( 'not_yet_approved' ) ;
#145 = CARTESIAN_POINT ( 'NONE',  ( 0.000000000000000000, 0.000000000000000000, 3.000000000000000000 ) ) ;
#146 = DIRECTION ( 'NONE',  ( 0.000000000000000000, -1.000000000000000000, 0.000000000000000000 ) ) ;
#147 = VECTOR ( 'NONE', #172, 1000.000000000000000 ) ;
#148 = DIRECTION ( 'NONE',  ( 0.000000000000000000, 0.000000000000000000, 1.000000000000000000 ) ) ;
#149 = CARTESIAN_POINT ( 'NONE',  ( -5.000000000000000000, 0.000000000000000000, 0.000000000000000000 ) ) ;
#150 = ADVANCED_FACE ( 'NONE', ( #78, #219 ), #93, .T. ) ;
#151 = UNCERTAINTY_MEASURE_WITH_UNIT (LENGTH_MEASURE( 1.000000000000000082E-05 ), #26, 'distance_accuracy_value', 'NONE');
#152 = DIRECTION ( 'NONE',  ( 0.000000000000000000, 0.000000000000000000, 1.000000000000000000 ) ) ;
#153 = AXIS2_PLACEMENT_3D ( 'NONE', #228, #109, #301 ) ;
#154 = CALENDAR_DATE ( 2022, 7, 7 ) ;
#155 = DIRECTION ( 'NONE',  ( 1.000000000000000000, 0.000000000000000000, 0.000000000000000000 ) ) ;
#156 = CC_DESIGN_APPROVAL ( #173, ( #281 ) ) ;
#157 = EDGE_CURVE ( 'NONE', #123, #260, #140, .T. ) ;
#158 = LINE ( 'NONE', #186, #234 ) ;
#159 = PERSON_AND_ORGANIZATION ( #20, #84 ) ;
#160 = EDGE_LOOP ( 'NONE', ( #205, #226, #100, #195 ) ) ;
#161 = PERSON_AND_ORGANIZATION_ROLE ( 'creator' ) ;
#162 = CARTESIAN_POINT ( 'NONE',  ( -5.000000000000000000, 0.000000000000000000, 3.000000000000000000 ) ) ;
#163 = SHAPE_DEFINITION_REPRESENTATION ( #98, #33 ) ;
#164 = EDGE_CURVE ( 'NONE', #175, #123, #258, .T. ) ;
#165 = ORIENTED_EDGE ( 'NONE', *, *, #130, .T. ) ;
#166 = DIRECTION ( 'NONE',  ( -1.000000000000000000, 0.000000000000000000, 0.000000000000000000 ) ) ;
#167 = ORIENTED_EDGE ( 'NONE', *, *, #250, .F. ) ;
#168 = APPROVAL ( #236, 'NEURÈENÝ' ) ;
#169 = CIRCLE ( 'NONE', #229, 2.700000000000000178 ) ;
#170 = DIRECTION ( 'NONE',  ( 0.000000000000000000, 0.000000000000000000, 1.000000000000000000 ) ) ;
#171 = DIRECTION ( 'NONE',  ( 0.000000000000000000, 0.000000000000000000, 1.000000000000000000 ) ) ;
#172 = DIRECTION ( 'NONE',  ( -0.000000000000000000, -0.000000000000000000, -1.000000000000000000 ) ) ;
#173 = APPROVAL ( #144, 'NEURÈENÝ' ) ;
#174 = PLANE ( 'NONE',  #1 ) ;
#175 = VERTEX_POINT ( 'NONE', #287 ) ;
#176 = PERSON_AND_ORGANIZATION_ROLE ( 'creator' ) ;
#177 = DIRECTION ( 'NONE',  ( 1.000000000000000000, 0.000000000000000000, -0.000000000000000000 ) ) ;
#178 = AXIS2_PLACEMENT_3D ( 'NONE', #216, #148, #120 ) ;
#179 = CARTESIAN_POINT ( 'NONE',  ( -2.500000000000000000, 0.000000000000000000, 3.200000000000008171 ) ) ;
#180 = ADVANCED_FACE ( 'NONE', ( #25 ), #54, .T. ) ;
#181 = EDGE_LOOP ( 'NONE', ( #58, #96 ) ) ;
#182 = PERSON_AND_ORGANIZATION_ROLE ( 'design_supplier' ) ;
#183 = CIRCLE ( 'NONE', #136, 0.2000000000000000944 ) ;
#184 = DIRECTION ( 'NONE',  ( 0.000000000000000000, 0.000000000000000000, 1.000000000000000000 ) ) ;
#185 = PRODUCT_RELATED_PRODUCT_CATEGORY ( 'detail', '', ( #5 ) ) ;
#186 = CARTESIAN_POINT ( 'NONE',  ( -5.000000000000000000, 0.000000000000000000, 3.000000000000000000 ) ) ;
#187 = ADVANCED_FACE ( 'NONE', ( #285 ), #208, .F. ) ;
#188 = APPROVAL_DATE_TIME ( #303, #168 ) ;
#189 = AXIS2_PLACEMENT_3D ( 'NONE', #30, #171, #77 ) ;
#190 = ADVANCED_FACE ( 'NONE', ( #49 ), #44, .F. ) ;
#191 = CIRCLE ( 'NONE', #307, 5.000000000000000000 ) ;
#192 = EDGE_CURVE ( 'NONE', #79, #105, #73, .T. ) ;
#193 = CARTESIAN_POINT ( 'NONE',  ( 0.000000000000000000, 0.000000000000000000, 3.200000000000008171 ) ) ;
#194 = CARTESIAN_POINT ( 'NONE',  ( 0.000000000000000000, 0.000000000000000000, 3.000000000000000000 ) ) ;
#195 = ORIENTED_EDGE ( 'NONE', *, *, #14, .T. ) ;
#196 = DIRECTION ( 'NONE',  ( -1.000000000000000000, 0.000000000000000000, 0.000000000000000000 ) ) ;
#197 = DIRECTION ( 'NONE',  ( 1.000000000000000000, 0.000000000000000000, 0.000000000000000000 ) ) ;
#198 = DIRECTION ( 'NONE',  ( 0.000000000000000000, 0.000000000000000000, 1.000000000000000000 ) ) ;
#199 = ORIENTED_EDGE ( 'NONE', *, *, #65, .T. ) ;
#200 = APPROVAL_DATE_TIME ( #101, #173 ) ;
#201 = FACE_OUTER_BOUND ( 'NONE', #110, .T. ) ;
#202 = VERTEX_POINT ( 'NONE', #8 ) ;
#203 = PERSON_AND_ORGANIZATION ( #20, #84 ) ;
#204 = EDGE_CURVE ( 'NONE', #175, #222, #212, .T. ) ;
#205 = ORIENTED_EDGE ( 'NONE', *, *, #157, .F. ) ;
#206 = CARTESIAN_POINT ( 'NONE',  ( 0.000000000000000000, 0.000000000000000000, 3.200000000000008171 ) ) ;
#207 = ORIENTED_EDGE ( 'NONE', *, *, #14, .F. ) ;
#208 = TOROIDAL_SURFACE ( 'NONE', #67, 2.700000000000000178, 0.2000000000000000111 ) ;
#209 = ADVANCED_FACE ( 'NONE', ( #2 ), #4, .T. ) ;
#210 = DIRECTION ( 'NONE',  ( 1.000000000000000000, 0.000000000000000000, 0.000000000000000000 ) ) ;
#211 = EDGE_CURVE ( 'NONE', #7, #79, #3, .T. ) ;
#212 = LINE ( 'NONE', #125, #247 ) ;
#213 = ORIENTED_EDGE ( 'NONE', *, *, #72, .F. ) ;
#214 = COORDINATED_UNIVERSAL_TIME_OFFSET ( 1, 0, .AHEAD. ) ;
#215 = AXIS2_PLACEMENT_3D ( 'NONE', #233, #70, #218 ) ;
#216 = CARTESIAN_POINT ( 'NONE',  ( 0.000000000000000000, 0.000000000000000000, 203.0000000000000000 ) ) ;
#217 = APPLICATION_PROTOCOL_DEFINITION ( 'international standard', 'config_control_design', 1994, #64 ) ;
#218 = DIRECTION ( 'NONE',  ( -1.000000000000000000, 0.000000000000000000, 0.000000000000000000 ) ) ;
#219 = FACE_OUTER_BOUND ( 'NONE', #181, .T. ) ;
#220 = AXIS2_PLACEMENT_3D ( 'NONE', #237, #235, #177 ) ;
#221 = EDGE_CURVE ( 'NONE', #238, #105, #305, .T. ) ;
#222 = VERTEX_POINT ( 'NONE', #179 ) ;
#223 = CARTESIAN_POINT ( 'NONE',  ( 0.000000000000000000, 0.000000000000000000, 3.000000000000000000 ) ) ;
#224 = ORIENTED_EDGE ( 'NONE', *, *, #204, .F. ) ;
#225 = CIRCLE ( 'NONE', #19, 2.500000000000000000 ) ;
#226 = ORIENTED_EDGE ( 'NONE', *, *, #164, .F. ) ;
#227 = PERSON_AND_ORGANIZATION ( #20, #84 ) ;
#228 = CARTESIAN_POINT ( 'NONE',  ( 0.000000000000000000, 0.000000000000000000, 203.0000000000000000 ) ) ;
#229 = AXIS2_PLACEMENT_3D ( 'NONE', #135, #251, #61 ) ;
#230 = APPLICATION_CONTEXT ( 'configuration controlled 3d designs of mechanical parts and assemblies' ) ;
#231 = APPROVAL_PERSON_ORGANIZATION ( #292, #173, #94 ) ;
#232 = AXIS2_PLACEMENT_3D ( 'NONE', #206, #184, #107 ) ;
#233 = CARTESIAN_POINT ( 'NONE',  ( 0.000000000000000000, 0.000000000000000000, 203.0000000000000000 ) ) ;
#234 = VECTOR ( 'NONE', #276, 1000.000000000000000 ) ;
#235 = DIRECTION ( 'NONE',  ( 0.000000000000000000, 0.000000000000000000, 1.000000000000000000 ) ) ;
#236 = APPROVAL_STATUS ( 'not_yet_approved' ) ;
#237 = CARTESIAN_POINT ( 'NONE',  ( 0.000000000000000000, 0.000000000000000000, 3.000000000000000000 ) ) ;
#238 = VERTEX_POINT ( 'NONE', #149 ) ;
#239 = DIRECTION ( 'NONE',  ( 1.000000000000000000, 0.000000000000000000, 0.000000000000000000 ) ) ;
#240 = DIRECTION ( 'NONE',  ( 1.000000000000000000, 0.000000000000000000, 0.000000000000000000 ) ) ;
#241 = ORIENTED_EDGE ( 'NONE', *, *, #45, .T. ) ;
#242 = DIRECTION ( 'NONE',  ( 0.000000000000000000, 0.000000000000000000, 1.000000000000000000 ) ) ;
#243 = FACE_OUTER_BOUND ( 'NONE', #37, .T. ) ;
#244 = DATE_AND_TIME ( #154, #259 ) ;
#245 = CARTESIAN_POINT ( 'NONE',  ( 5.000000000000000000, 6.123233995736766282E-16, 3.000000000000000000 ) ) ;
#246 = DIRECTION ( 'NONE',  ( 0.000000000000000000, 0.000000000000000000, 1.000000000000000000 ) ) ;
#247 = VECTOR ( 'NONE', #117, 1000.000000000000000 ) ;
#248 = EDGE_LOOP ( 'NONE', ( #87, #133, #266, #224 ) ) ;
#249 = PERSON_AND_ORGANIZATION_ROLE ( 'classification_officer' ) ;
#250 = EDGE_CURVE ( 'NONE', #260, #39, #183, .T. ) ;
#251 = DIRECTION ( 'NONE',  ( -0.000000000000000000, -0.000000000000000000, -1.000000000000000000 ) ) ;
#252 = AXIS2_PLACEMENT_3D ( 'NONE', #194, #293, #166 ) ;
#253 = SECURITY_CLASSIFICATION_LEVEL ( 'unclassified' ) ;
#254 = FACE_OUTER_BOUND ( 'NONE', #160, .T. ) ;
#255 = LOCAL_TIME ( 14, 46, 41.00000000000000000, #214 ) ;
#256 = PERSON_AND_ORGANIZATION ( #20, #84 ) ;
#257 = SECURITY_CLASSIFICATION ( '', '', #253 ) ;
#258 = CIRCLE ( 'NONE', #304, 2.500000000000000000 ) ;
#259 = LOCAL_TIME ( 14, 46, 41.00000000000000000, #55 ) ;
#260 = VERTEX_POINT ( 'NONE', #53 ) ;
#261 = EDGE_CURVE ( 'NONE', #123, #175, #102, .T. ) ;
#262 = PLANE ( 'NONE',  #178 ) ;
#263 = ORIENTED_EDGE ( 'NONE', *, *, #261, .T. ) ;
#264 = COORDINATED_UNIVERSAL_TIME_OFFSET ( 1, 0, .AHEAD. ) ;
#265 = CARTESIAN_POINT ( 'NONE',  ( 0.000000000000000000, 0.000000000000000000, 0.000000000000000000 ) ) ;
#266 = ORIENTED_EDGE ( 'NONE', *, *, #72, .T. ) ;
#267 = CARTESIAN_POINT ( 'NONE',  ( 0.000000000000000000, 0.000000000000000000, 0.000000000000000000 ) ) ;
#268 = CARTESIAN_POINT ( 'NONE',  ( 0.000000000000000000, 0.000000000000000000, 3.000000000000000000 ) ) ;
#269 = CALENDAR_DATE ( 2022, 7, 7 ) ;
#270 = CARTESIAN_POINT ( 'NONE',  ( 0.000000000000000000, 0.000000000000000000, 203.0000000000000000 ) ) ;
#271 = ORIENTED_EDGE ( 'NONE', *, *, #221, .T. ) ;
#272 = ORIENTED_EDGE ( 'NONE', *, *, #221, .F. ) ;
#273 = ORIENTED_EDGE ( 'NONE', *, *, #45, .F. ) ;
#274 = CALENDAR_DATE ( 2022, 7, 7 ) ;
#275 = AXIS2_PLACEMENT_3D ( 'NONE', #193, #152, #210 ) ;
#276 = DIRECTION ( 'NONE',  ( -0.000000000000000000, -0.000000000000000000, -1.000000000000000000 ) ) ;
#277 = DATE_AND_TIME ( #137, #35 ) ;
#278 = CARTESIAN_POINT ( 'NONE',  ( 0.000000000000000000, 0.000000000000000000, 3.200000000000008171 ) ) ;
#279 = DATE_AND_TIME ( #274, #40 ) ;
#280 = PRODUCT_DEFINITION_FORMATION_WITH_SPECIFIED_SOURCE ( 'LIBOVOLNÝ', '', #5, .NOT_KNOWN. ) ;
#281 = PRODUCT_DEFINITION ( 'NEZNÁMÝ', '', #280, #51 ) ;
#282 = MANIFOLD_SOLID_BREP ( 'Zaoblit1', #62 ) ;
#283 = ORIENTED_EDGE ( 'NONE', *, *, #65, .F. ) ;
#284 = AXIS2_PLACEMENT_3D ( 'NONE', #223, #106, #32 ) ;
#285 = FACE_OUTER_BOUND ( 'NONE', #297, .T. ) ;
#286 = EDGE_LOOP ( 'NONE', ( #29, #213, #83, #57 ) ) ;
#287 = CARTESIAN_POINT ( 'NONE',  ( -2.500000000000000000, 0.000000000000000000, 203.0000000000000000 ) ) ;
#288 = DATE_TIME_ROLE ( 'creation_date' ) ;
#289 = CIRCLE ( 'NONE', #291, 2.700000000000000178 ) ;
#290 = APPROVAL ( #111, 'NEURÈENÝ' ) ;
#291 = AXIS2_PLACEMENT_3D ( 'NONE', #142, #122, #240 ) ;
#292 = PERSON_AND_ORGANIZATION ( #20, #84 ) ;
#293 = DIRECTION ( 'NONE',  ( -0.000000000000000000, -0.000000000000000000, -1.000000000000000000 ) ) ;
#294 = DIRECTION ( 'NONE',  ( 0.000000000000000000, 0.000000000000000000, 1.000000000000000000 ) ) ;
#295 = DIRECTION ( 'NONE',  ( -0.000000000000000000, -0.000000000000000000, -1.000000000000000000 ) ) ;
#296 = CIRCLE ( 'NONE', #232, 2.500000000000000000 ) ;
#297 = EDGE_LOOP ( 'NONE', ( #207, #165, #283, #167 ) ) ;
#298 = APPLICATION_PROTOCOL_DEFINITION ( 'international standard', 'config_control_design', 1994, #230 ) ;
#299 = ORIENTED_EDGE ( 'NONE', *, *, #306, .F. ) ;
#300 = CC_DESIGN_SECURITY_CLASSIFICATION ( #257, ( #280 ) ) ;
#301 = DIRECTION ( 'NONE',  ( -1.000000000000000000, 0.000000000000000000, 0.000000000000000000 ) ) ;
#302 = PERSON_AND_ORGANIZATION ( #20, #84 ) ;
#303 = DATE_AND_TIME ( #85, #255 ) ;
#304 = AXIS2_PLACEMENT_3D ( 'NONE', #270, #31, #22 ) ;
#305 = CIRCLE ( 'NONE', #189, 5.000000000000000000 ) ;
#306 = EDGE_CURVE ( 'NONE', #105, #238, #59, .T. ) ;
#307 = AXIS2_PLACEMENT_3D ( 'NONE', #145, #198, #197 ) ;
ENDSEC;
END-ISO-10303-21;
