ISO-10303-21;
HEADER;
FILE_DESCRIPTION (( 'STEP AP203' ),
    '1' );
FILE_NAME ('dbe4.STEP',
    '2022-07-07T12:57:16',
    ( '' ),
    ( '' ),
    'SwSTEP 2.0',
    'SolidWorks 2019',
    '' );
FILE_SCHEMA (( 'CONFIG_CONTROL_DESIGN' ));
ENDSEC;

DATA;
#1 = VERTEX_POINT ( 'NONE', #282 ) ;
#2 = APPROVAL_PERSON_ORGANIZATION ( #13, #259, #234 ) ;
#3 = ORIENTED_EDGE ( 'NONE', *, *, #136, .F. ) ;
#4 = DIRECTION ( 'NONE',  ( 0.000000000000000000, 0.000000000000000000, 1.000000000000000000 ) ) ;
#5 = CIRCLE ( 'NONE', #205, 1.100000000000000089 ) ;
#6 = ORIENTED_EDGE ( 'NONE', *, *, #236, .T. ) ;
#7 = ADVANCED_FACE ( 'NONE', ( #69 ), #66, .T. ) ;
#8 = PERSON_AND_ORGANIZATION ( #62, #150 ) ;
#9 = CC_DESIGN_PERSON_AND_ORGANIZATION_ASSIGNMENT ( #55, #159, ( #71 ) ) ;
#10 = DATE_AND_TIME ( #105, #213 ) ;
#11 = CARTESIAN_POINT ( 'NONE',  ( 1.300000000000000266, 0.000000000000000000, 2.000000000000003553 ) ) ;
#12 = APPLICATION_CONTEXT ( 'configuration controlled 3d designs of mechanical parts and assemblies' ) ;
#13 = PERSON_AND_ORGANIZATION ( #62, #150 ) ;
#14 = AXIS2_PLACEMENT_3D ( 'NONE', #168, #191, #19 ) ;
#15 = CALENDAR_DATE ( 2022, 7, 7 ) ;
#16 = DIRECTION ( 'NONE',  ( 0.000000000000000000, 0.000000000000000000, 1.000000000000000000 ) ) ;
#17 = CARTESIAN_POINT ( 'NONE',  ( 0.000000000000000000, 0.000000000000000000, 2.000000000000000000 ) ) ;
#18 = LINE ( 'NONE', #110, #87 ) ;
#19 = DIRECTION ( 'NONE',  ( 1.000000000000000000, 0.000000000000000000, 0.000000000000000000 ) ) ;
#20 = EDGE_CURVE ( 'NONE', #229, #204, #18, .T. ) ;
#21 = CARTESIAN_POINT ( 'NONE',  ( -2.000000000000000000, 0.000000000000000000, 0.000000000000000000 ) ) ;
#22 = DIRECTION ( 'NONE',  ( -0.000000000000000000, -0.000000000000000000, -1.000000000000000000 ) ) ;
#23 = ADVANCED_FACE ( 'NONE', ( #143 ), #85, .T. ) ;
#24 = EDGE_LOOP ( 'NONE', ( #293, #228, #99, #202 ) ) ;
#25 = VERTEX_POINT ( 'NONE', #21 ) ;
#26 = CC_DESIGN_APPROVAL ( #259, ( #197 ) ) ;
#27 = CARTESIAN_POINT ( 'NONE',  ( 0.000000000000000000, 0.000000000000000000, 2.200000000000007283 ) ) ;
#28 = EDGE_LOOP ( 'NONE', ( #32, #149, #139, #120 ) ) ;
#29 = EDGE_CURVE ( 'NONE', #288, #1, #124, .T. ) ;
#30 = DIRECTION ( 'NONE',  ( 0.000000000000000000, -1.000000000000000000, 0.000000000000000000 ) ) ;
#31 = VECTOR ( 'NONE', #285, 1000.000000000000000 ) ;
#32 = ORIENTED_EDGE ( 'NONE', *, *, #92, .F. ) ;
#33 = DIRECTION ( 'NONE',  ( 0.000000000000000000, 0.000000000000000000, 1.000000000000000000 ) ) ;
#34 = DATE_TIME_ROLE ( 'classification_date' ) ;
#35 = APPROVAL_DATE_TIME ( #58, #131 ) ;
#36 = CARTESIAN_POINT ( 'NONE',  ( 0.000000000000000000, 0.000000000000000000, 2.200000000000007283 ) ) ;
#37 = ADVANCED_FACE ( 'NONE', ( #88 ), #196, .T. ) ;
#38 = CARTESIAN_POINT ( 'NONE',  ( -1.100000000000000089, 0.000000000000000000, 2.200000000000007283 ) ) ;
#39 = LINE ( 'NONE', #70, #132 ) ;
#40 = AXIS2_PLACEMENT_3D ( 'NONE', #193, #280, #303 ) ;
#41 = DIRECTION ( 'NONE',  ( 1.000000000000000000, 0.000000000000000000, 0.000000000000000000 ) ) ;
#42 = PRODUCT_RELATED_PRODUCT_CATEGORY ( 'detail', '', ( #201 ) ) ;
#43 = AXIS2_PLACEMENT_3D ( 'NONE', #84, #275, #257 ) ;
#44 = ORIENTED_EDGE ( 'NONE', *, *, #141, .F. ) ;
#45 = DIRECTION ( 'NONE',  ( -0.000000000000000000, -0.000000000000000000, -1.000000000000000000 ) ) ;
#46 = AXIS2_PLACEMENT_3D ( 'NONE', #155, #30, #183 ) ;
#47 = ORIENTED_EDGE ( 'NONE', *, *, #113, .T. ) ;
#48 = EDGE_CURVE ( 'NONE', #151, #176, #39, .T. ) ;
#49 = EDGE_LOOP ( 'NONE', ( #119, #97, #244, #95 ) ) ;
#50 = ORIENTED_EDGE ( 'NONE', *, *, #300, .T. ) ;
#51 =( LENGTH_UNIT ( ) NAMED_UNIT ( * ) SI_UNIT ( .MILLI., .METRE. ) );
#52 = ORIENTED_EDGE ( 'NONE', *, *, #170, .T. ) ;
#53 = CC_DESIGN_DATE_AND_TIME_ASSIGNMENT ( #185, #82, ( #63 ) ) ;
#54 = DIRECTION ( 'NONE',  ( 1.000000000000000000, 0.000000000000000000, 0.000000000000000000 ) ) ;
#55 = PERSON_AND_ORGANIZATION ( #62, #150 ) ;
#56 = CIRCLE ( 'NONE', #46, 0.2000000000000000944 ) ;
#57 = DIRECTION ( 'NONE',  ( 0.000000000000000000, 0.000000000000000000, 1.000000000000000000 ) ) ;
#58 = DATE_AND_TIME ( #206, #268 ) ;
#59 = CARTESIAN_POINT ( 'NONE',  ( -1.100000000000000089, 0.000000000000000000, 252.0000000000000000 ) ) ;
#60 = PERSON_AND_ORGANIZATION_ROLE ( 'creator' ) ;
#61 = DIRECTION ( 'NONE',  ( 1.000000000000000000, 0.000000000000000000, 0.000000000000000000 ) ) ;
#62 = PERSON ( 'NEURÈENÝ', 'NEURÈENÝ', 'NEURÈENÝ', ('NEURÈENÝ'), ('NEURÈENÝ'), ('NEURÈENÝ') ) ;
#63 = PRODUCT_DEFINITION ( 'NEZNÁMÝ', '', #197, #123 ) ;
#64 = CC_DESIGN_PERSON_AND_ORGANIZATION_ASSIGNMENT ( #277, #161, ( #197 ) ) ;
#65 = DIRECTION ( 'NONE',  ( 0.000000000000000000, 0.000000000000000000, 1.000000000000000000 ) ) ;
#66 = CYLINDRICAL_SURFACE ( 'NONE', #89, 2.000000000000000000 ) ;
#67 = DIRECTION ( 'NONE',  ( 1.000000000000000000, 0.000000000000000000, -0.000000000000000000 ) ) ;
#68 = AXIS2_PLACEMENT_3D ( 'NONE', #81, #144, #41 ) ;
#69 = FACE_OUTER_BOUND ( 'NONE', #24, .T. ) ;
#70 = CARTESIAN_POINT ( 'NONE',  ( -1.100000000000000089, 0.000000000000000000, 252.0000000000000000 ) ) ;
#71 = SECURITY_CLASSIFICATION ( '', '', #272 ) ;
#72 = ORIENTED_EDGE ( 'NONE', *, *, #48, .F. ) ;
#73 = ADVANCED_FACE ( 'NONE', ( #142 ), #304, .T. ) ;
#74 = VERTEX_POINT ( 'NONE', #115 ) ;
#75 = DIRECTION ( 'NONE',  ( -0.000000000000000000, -0.000000000000000000, -1.000000000000000000 ) ) ;
#76 = EDGE_LOOP ( 'NONE', ( #173, #291, #287, #179 ) ) ;
#77 = PERSON_AND_ORGANIZATION_ROLE ( 'design_owner' ) ;
#78 = CIRCLE ( 'NONE', #247, 2.000000000000000000 ) ;
#79 =( NAMED_UNIT ( * ) PLANE_ANGLE_UNIT ( ) SI_UNIT ( $, .RADIAN. ) );
#80 = PERSON_AND_ORGANIZATION ( #62, #150 ) ;
#81 = CARTESIAN_POINT ( 'NONE',  ( 0.000000000000000000, 0.000000000000000000, 2.000000000000000000 ) ) ;
#82 = DATE_TIME_ROLE ( 'creation_date' ) ;
#83 = CARTESIAN_POINT ( 'NONE',  ( 0.000000000000000000, 0.000000000000000000, 2.200000000000007283 ) ) ;
#84 = CARTESIAN_POINT ( 'NONE',  ( 0.000000000000000000, 0.000000000000000000, 252.0000000000000000 ) ) ;
#85 = PLANE ( 'NONE',  #40 ) ;
#86 = FACE_BOUND ( 'NONE', #93, .T. ) ;
#87 = VECTOR ( 'NONE', #114, 1000.000000000000000 ) ;
#88 = FACE_OUTER_BOUND ( 'NONE', #76, .T. ) ;
#89 = AXIS2_PLACEMENT_3D ( 'NONE', #165, #301, #238 ) ;
#90 = DIRECTION ( 'NONE',  ( 1.224646799147353207E-16, 1.000000000000000000, -0.000000000000000000 ) ) ;
#91 = EDGE_CURVE ( 'NONE', #176, #74, #158, .T. ) ;
#92 = EDGE_CURVE ( 'NONE', #1, #263, #262, .T. ) ;
#93 = EDGE_LOOP ( 'NONE', ( #250, #52 ) ) ;
#94 = APPROVAL ( #256, 'NEURÈENÝ' ) ;
#95 = ORIENTED_EDGE ( 'NONE', *, *, #170, .F. ) ;
#96 = COORDINATED_UNIVERSAL_TIME_OFFSET ( 1, 0, .AHEAD. ) ;
#97 = ORIENTED_EDGE ( 'NONE', *, *, #236, .F. ) ;
#98 = CARTESIAN_POINT ( 'NONE',  ( 0.000000000000000000, 0.000000000000000000, 0.000000000000000000 ) ) ;
#99 = ORIENTED_EDGE ( 'NONE', *, *, #136, .T. ) ;
#100 = APPROVAL_ROLE ( '' ) ;
#101 = MANIFOLD_SOLID_BREP ( 'Zaoblit1', #246 ) ;
#102 = CARTESIAN_POINT ( 'NONE',  ( 0.000000000000000000, 0.000000000000000000, 252.0000000000000000 ) ) ;
#103 = CALENDAR_DATE ( 2022, 7, 7 ) ;
#104 = CIRCLE ( 'NONE', #108, 1.300000000000000266 ) ;
#105 = CALENDAR_DATE ( 2022, 7, 7 ) ;
#106 = EDGE_CURVE ( 'NONE', #176, #204, #5, .T. ) ;
#107 = DIRECTION ( 'NONE',  ( 1.000000000000000000, 0.000000000000000000, 0.000000000000000000 ) ) ;
#108 = AXIS2_PLACEMENT_3D ( 'NONE', #278, #45, #61 ) ;
#109 = CARTESIAN_POINT ( 'NONE',  ( 0.000000000000000000, 0.000000000000000000, 0.000000000000000000 ) ) ;
#110 = CARTESIAN_POINT ( 'NONE',  ( 1.100000000000000089, 1.347111479062088503E-16, 252.0000000000000000 ) ) ;
#111 = APPLICATION_CONTEXT ( 'configuration controlled 3d designs of mechanical parts and assemblies' ) ;
#112 = PLANE ( 'NONE',  #184 ) ;
#113 = EDGE_CURVE ( 'NONE', #1, #288, #243, .T. ) ;
#114 = DIRECTION ( 'NONE',  ( -0.000000000000000000, -0.000000000000000000, -1.000000000000000000 ) ) ;
#115 = CARTESIAN_POINT ( 'NONE',  ( -1.300000000000000266, 1.592040838891559342E-16, 2.000000000000003553 ) ) ;
#116 = PRODUCT_DEFINITION_SHAPE ( 'NONE', 'NONE',  #63 ) ;
#117 = EDGE_CURVE ( 'NONE', #266, #74, #214, .T. ) ;
#118 = CC_DESIGN_PERSON_AND_ORGANIZATION_ASSIGNMENT ( #80, #60, ( #197 ) ) ;
#119 = ORIENTED_EDGE ( 'NONE', *, *, #91, .F. ) ;
#120 = ORIENTED_EDGE ( 'NONE', *, *, #194, .T. ) ;
#121 = DIRECTION ( 'NONE',  ( 1.000000000000000000, 0.000000000000000000, 0.000000000000000000 ) ) ;
#122 = ORIENTED_EDGE ( 'NONE', *, *, #307, .F. ) ;
#123 = DESIGN_CONTEXT ( 'detailed design', #12, 'design' ) ;
#124 = CIRCLE ( 'NONE', #171, 2.000000000000000000 ) ;
#125 = DIRECTION ( 'NONE',  ( -1.000000000000000000, 0.000000000000000000, 0.000000000000000000 ) ) ;
#126 = CIRCLE ( 'NONE', #140, 2.000000000000000000 ) ;
#127 = EDGE_LOOP ( 'NONE', ( #270, #47 ) ) ;
#128 = CARTESIAN_POINT ( 'NONE',  ( 0.000000000000000000, 0.000000000000000000, 2.000000000000000000 ) ) ;
#129 = COORDINATED_UNIVERSAL_TIME_OFFSET ( 1, 0, .AHEAD. ) ;
#130 = CARTESIAN_POINT ( 'NONE',  ( -2.000000000000000000, 0.000000000000000000, 2.000000000000000000 ) ) ;
#131 = APPROVAL ( #248, 'NEURÈENÝ' ) ;
#132 = VECTOR ( 'NONE', #22, 1000.000000000000000 ) ;
#133 = PERSON_AND_ORGANIZATION ( #62, #150 ) ;
#134 = APPROVAL_DATE_TIME ( #156, #259 ) ;
#135 = CC_DESIGN_APPROVAL ( #94, ( #71 ) ) ;
#136 = EDGE_CURVE ( 'NONE', #263, #25, #126, .T. ) ;
#137 = DIRECTION ( 'NONE',  ( 1.000000000000000000, 0.000000000000000000, 0.000000000000000000 ) ) ;
#138 = FACE_OUTER_BOUND ( 'NONE', #127, .T. ) ;
#139 = ORIENTED_EDGE ( 'NONE', *, *, #203, .T. ) ;
#140 = AXIS2_PLACEMENT_3D ( 'NONE', #189, #240, #107 ) ;
#141 = EDGE_CURVE ( 'NONE', #229, #151, #267, .T. ) ;
#142 = FACE_OUTER_BOUND ( 'NONE', #289, .T. ) ;
#143 = FACE_OUTER_BOUND ( 'NONE', #174, .T. ) ;
#144 = DIRECTION ( 'NONE',  ( -0.000000000000000000, -0.000000000000000000, -1.000000000000000000 ) ) ;
#145 = AXIS2_PLACEMENT_3D ( 'NONE', #260, #90, #264 ) ;
#146 = AXIS2_PLACEMENT_3D ( 'NONE', #102, #57, #121 ) ;
#147 = CC_DESIGN_PERSON_AND_ORGANIZATION_ASSIGNMENT ( #8, #77, ( #201 ) ) ;
#148 = EDGE_LOOP ( 'NONE', ( #224, #245, #209, #122 ) ) ;
#149 = ORIENTED_EDGE ( 'NONE', *, *, #29, .F. ) ;
#150 = ORGANIZATION ( 'NEURÈENÝ', 'NEURÈENÝ', '' ) ;
#151 = VERTEX_POINT ( 'NONE', #59 ) ;
#152 = ADVANCED_FACE ( 'NONE', ( #160 ), #286, .F. ) ;
#153 = COORDINATED_UNIVERSAL_TIME_OFFSET ( 1, 0, .AHEAD. ) ;
#154 = CC_DESIGN_DATE_AND_TIME_ASSIGNMENT ( #186, #34, ( #71 ) ) ;
#155 = CARTESIAN_POINT ( 'NONE',  ( 1.300000000000000266, 0.000000000000000000, 2.200000000000007283 ) ) ;
#156 = DATE_AND_TIME ( #103, #167 ) ;
#157 = COORDINATED_UNIVERSAL_TIME_OFFSET ( 1, 0, .AHEAD. ) ;
#158 = CIRCLE ( 'NONE', #145, 0.2000000000000000944 ) ;
#159 = PERSON_AND_ORGANIZATION_ROLE ( 'classification_officer' ) ;
#160 = FACE_OUTER_BOUND ( 'NONE', #148, .T. ) ;
#161 = PERSON_AND_ORGANIZATION_ROLE ( 'design_supplier' ) ;
#162 = FACE_OUTER_BOUND ( 'NONE', #207, .T. ) ;
#163 = DIRECTION ( 'NONE',  ( -1.000000000000000000, 0.000000000000000000, 0.000000000000000000 ) ) ;
#164 = DIRECTION ( 'NONE',  ( -1.000000000000000000, 0.000000000000000000, 0.000000000000000000 ) ) ;
#165 = CARTESIAN_POINT ( 'NONE',  ( 0.000000000000000000, 0.000000000000000000, 2.000000000000000000 ) ) ;
#166 = ADVANCED_FACE ( 'NONE', ( #215 ), #223, .F. ) ;
#167 = LOCAL_TIME ( 14, 57, 16.00000000000000000, #190 ) ;
#168 = CARTESIAN_POINT ( 'NONE',  ( 0.000000000000000000, 0.000000000000000000, 2.200000000000007283 ) ) ;
#169 = CARTESIAN_POINT ( 'NONE',  ( 0.000000000000000000, 0.000000000000000000, 252.0000000000000000 ) ) ;
#170 = EDGE_CURVE ( 'NONE', #74, #266, #104, .T. ) ;
#171 = AXIS2_PLACEMENT_3D ( 'NONE', #220, #218, #241 ) ;
#172 = AXIS2_PLACEMENT_3D ( 'NONE', #27, #33, #292 ) ;
#173 = ORIENTED_EDGE ( 'NONE', *, *, #20, .F. ) ;
#174 = EDGE_LOOP ( 'NONE', ( #50, #180 ) ) ;
#175 = ADVANCED_FACE ( 'NONE', ( #162 ), #112, .F. ) ;
#176 = VERTEX_POINT ( 'NONE', #38 ) ;
#177 = AXIS2_PLACEMENT_3D ( 'NONE', #169, #261, #163 ) ;
#178 = CC_DESIGN_SECURITY_CLASSIFICATION ( #71, ( #197 ) ) ;
#179 = ORIENTED_EDGE ( 'NONE', *, *, #106, .T. ) ;
#180 = ORIENTED_EDGE ( 'NONE', *, *, #141, .T. ) ;
#181 = CARTESIAN_POINT ( 'NONE',  ( -2.000000000000000000, 0.000000000000000000, 2.000000000000000000 ) ) ;
#182 = ADVANCED_FACE ( 'NONE', ( #86, #138 ), #237, .T. ) ;
#183 = DIRECTION ( 'NONE',  ( 0.000000000000000000, 0.000000000000000000, -1.000000000000000000 ) ) ;
#184 = AXIS2_PLACEMENT_3D ( 'NONE', #242, #219, #302 ) ;
#185 = DATE_AND_TIME ( #187, #284 ) ;
#186 = DATE_AND_TIME ( #15, #274 ) ;
#187 = CALENDAR_DATE ( 2022, 7, 7 ) ;
#188 = AXIS2_PLACEMENT_3D ( 'NONE', #216, #198, #235 ) ;
#189 = CARTESIAN_POINT ( 'NONE',  ( 0.000000000000000000, 0.000000000000000000, 0.000000000000000000 ) ) ;
#190 = COORDINATED_UNIVERSAL_TIME_OFFSET ( 1, 0, .AHEAD. ) ;
#191 = DIRECTION ( 'NONE',  ( 0.000000000000000000, 0.000000000000000000, 1.000000000000000000 ) ) ;
#192 = CARTESIAN_POINT ( 'NONE',  ( 2.000000000000000000, 2.449293598294706414E-16, 2.000000000000000000 ) ) ;
#193 = CARTESIAN_POINT ( 'NONE',  ( 0.000000000000000000, 0.000000000000000000, 252.0000000000000000 ) ) ;
#194 = EDGE_CURVE ( 'NONE', #25, #263, #78, .T. ) ;
#195 = DIRECTION ( 'NONE',  ( 0.000000000000000000, 0.000000000000000000, 1.000000000000000000 ) ) ;
#196 = CYLINDRICAL_SURFACE ( 'NONE', #177, 1.100000000000000089 ) ;
#197 = PRODUCT_DEFINITION_FORMATION_WITH_SPECIFIED_SOURCE ( 'LIBOVOLNÝ', '', #201, .NOT_KNOWN. ) ;
#198 = DIRECTION ( 'NONE',  ( 0.000000000000000000, 0.000000000000000000, 1.000000000000000000 ) ) ;
#199 = CIRCLE ( 'NONE', #172, 1.100000000000000089 ) ;
#200 = CC_DESIGN_APPROVAL ( #131, ( #63 ) ) ;
#201 = PRODUCT ( 'dbe4', 'dbe4', '', ( #252 ) ) ;
#202 = ORIENTED_EDGE ( 'NONE', *, *, #203, .F. ) ;
#203 = EDGE_CURVE ( 'NONE', #288, #25, #271, .T. ) ;
#204 = VERTEX_POINT ( 'NONE', #211 ) ;
#205 = AXIS2_PLACEMENT_3D ( 'NONE', #83, #16, #279 ) ;
#206 = CALENDAR_DATE ( 2022, 7, 7 ) ;
#207 = EDGE_LOOP ( 'NONE', ( #225, #3 ) ) ;
#208 = DIRECTION ( 'NONE',  ( 0.000000000000000000, 0.000000000000000000, 1.000000000000000000 ) ) ;
#209 = ORIENTED_EDGE ( 'NONE', *, *, #117, .F. ) ;
#210 = APPROVAL_DATE_TIME ( #10, #94 ) ;
#211 = CARTESIAN_POINT ( 'NONE',  ( 1.100000000000000089, 1.347111479062088503E-16, 2.200000000000007283 ) ) ;
#212 = AXIS2_PLACEMENT_3D ( 'NONE', #98, #208, #54 ) ;
#213 = LOCAL_TIME ( 14, 57, 16.00000000000000000, #129 ) ;
#214 = CIRCLE ( 'NONE', #68, 1.300000000000000266 ) ;
#215 = FACE_OUTER_BOUND ( 'NONE', #49, .T. ) ;
#216 = CARTESIAN_POINT ( 'NONE',  ( 0.000000000000000000, 0.000000000000000000, 2.000000000000000000 ) ) ;
#217 = CC_DESIGN_PERSON_AND_ORGANIZATION_ASSIGNMENT ( #258, #232, ( #63 ) ) ;
#218 = DIRECTION ( 'NONE',  ( 0.000000000000000000, 0.000000000000000000, 1.000000000000000000 ) ) ;
#219 = DIRECTION ( 'NONE',  ( 0.000000000000000000, 0.000000000000000000, 1.000000000000000000 ) ) ;
#220 = CARTESIAN_POINT ( 'NONE',  ( 0.000000000000000000, 0.000000000000000000, 2.000000000000000000 ) ) ;
#221 = CARTESIAN_POINT ( 'NONE',  ( 0.000000000000000000, 0.000000000000000000, 252.0000000000000000 ) ) ;
#222 = AXIS2_PLACEMENT_3D ( 'NONE', #221, #281, #164 ) ;
#223 = TOROIDAL_SURFACE ( 'NONE', #14, 1.300000000000000266, 0.2000000000000000111 ) ;
#224 = ORIENTED_EDGE ( 'NONE', *, *, #106, .F. ) ;
#225 = ORIENTED_EDGE ( 'NONE', *, *, #194, .F. ) ;
#226 = UNCERTAINTY_MEASURE_WITH_UNIT (LENGTH_MEASURE( 1.000000000000000082E-05 ), #51, 'distance_accuracy_value', 'NONE');
#227 = APPROVAL_ROLE ( '' ) ;
#228 = ORIENTED_EDGE ( 'NONE', *, *, #92, .T. ) ;
#229 = VERTEX_POINT ( 'NONE', #297 ) ;
#230 = PERSON_AND_ORGANIZATION ( #62, #150 ) ;
#231 = CARTESIAN_POINT ( 'NONE',  ( 2.000000000000000000, 2.449293598294706414E-16, 0.000000000000000000 ) ) ;
#232 = PERSON_AND_ORGANIZATION_ROLE ( 'creator' ) ;
#233 = DIRECTION ( 'NONE',  ( -0.000000000000000000, -0.000000000000000000, -1.000000000000000000 ) ) ;
#234 = APPROVAL_ROLE ( '' ) ;
#235 = DIRECTION ( 'NONE',  ( 1.000000000000000000, 0.000000000000000000, 0.000000000000000000 ) ) ;
#236 = EDGE_CURVE ( 'NONE', #204, #176, #199, .T. ) ;
#237 = PLANE ( 'NONE',  #305 ) ;
#238 = DIRECTION ( 'NONE',  ( -1.000000000000000000, 0.000000000000000000, 0.000000000000000000 ) ) ;
#239 =( GEOMETRIC_REPRESENTATION_CONTEXT ( 3 ) GLOBAL_UNCERTAINTY_ASSIGNED_CONTEXT ( ( #226 ) ) GLOBAL_UNIT_ASSIGNED_CONTEXT ( ( #51, #79, #290 ) ) REPRESENTATION_CONTEXT ( 'NONE', 'WORKASPACE' ) );
#240 = DIRECTION ( 'NONE',  ( 0.000000000000000000, 0.000000000000000000, 1.000000000000000000 ) ) ;
#241 = DIRECTION ( 'NONE',  ( 1.000000000000000000, 0.000000000000000000, 0.000000000000000000 ) ) ;
#242 = CARTESIAN_POINT ( 'NONE',  ( 0.000000000000000000, 0.000000000000000000, 0.000000000000000000 ) ) ;
#243 = CIRCLE ( 'NONE', #188, 2.000000000000000000 ) ;
#244 = ORIENTED_EDGE ( 'NONE', *, *, #307, .T. ) ;
#245 = ORIENTED_EDGE ( 'NONE', *, *, #91, .T. ) ;
#246 = CLOSED_SHELL ( 'NONE', ( #152, #73, #7, #249, #182, #175, #37, #23, #166 ) ) ;
#247 = AXIS2_PLACEMENT_3D ( 'NONE', #109, #4, #273 ) ;
#248 = APPROVAL_STATUS ( 'not_yet_approved' ) ;
#249 = ADVANCED_FACE ( 'NONE', ( #254 ), #269, .T. ) ;
#250 = ORIENTED_EDGE ( 'NONE', *, *, #117, .T. ) ;
#251 = ADVANCED_BREP_SHAPE_REPRESENTATION ( 'dbe4', ( #101, #212 ), #239 ) ;
#252 = MECHANICAL_CONTEXT ( 'NONE', #111, 'mechanical' ) ;
#253 = APPROVAL_STATUS ( 'not_yet_approved' ) ;
#254 = FACE_OUTER_BOUND ( 'NONE', #28, .T. ) ;
#255 = APPLICATION_PROTOCOL_DEFINITION ( 'international standard', 'config_control_design', 1994, #111 ) ;
#256 = APPROVAL_STATUS ( 'not_yet_approved' ) ;
#257 = DIRECTION ( 'NONE',  ( 1.000000000000000000, 0.000000000000000000, 0.000000000000000000 ) ) ;
#258 = PERSON_AND_ORGANIZATION ( #62, #150 ) ;
#259 = APPROVAL ( #253, 'NEURÈENÝ' ) ;
#260 = CARTESIAN_POINT ( 'NONE',  ( -1.300000000000000266, 1.592040838891559342E-16, 2.200000000000007283 ) ) ;
#261 = DIRECTION ( 'NONE',  ( -0.000000000000000000, -0.000000000000000000, -1.000000000000000000 ) ) ;
#262 = LINE ( 'NONE', #192, #31 ) ;
#263 = VERTEX_POINT ( 'NONE', #231 ) ;
#264 = DIRECTION ( 'NONE',  ( -1.000000000000000000, 1.224646799147353207E-16, 0.000000000000000000 ) ) ;
#265 = ORIENTED_EDGE ( 'NONE', *, *, #20, .T. ) ;
#266 = VERTEX_POINT ( 'NONE', #11 ) ;
#267 = CIRCLE ( 'NONE', #43, 1.100000000000000089 ) ;
#268 = LOCAL_TIME ( 14, 57, 16.00000000000000000, #96 ) ;
#269 = CYLINDRICAL_SURFACE ( 'NONE', #296, 2.000000000000000000 ) ;
#270 = ORIENTED_EDGE ( 'NONE', *, *, #29, .T. ) ;
#271 = LINE ( 'NONE', #130, #283 ) ;
#272 = SECURITY_CLASSIFICATION_LEVEL ( 'unclassified' ) ;
#273 = DIRECTION ( 'NONE',  ( 1.000000000000000000, 0.000000000000000000, 0.000000000000000000 ) ) ;
#274 = LOCAL_TIME ( 14, 57, 16.00000000000000000, #153 ) ;
#275 = DIRECTION ( 'NONE',  ( 0.000000000000000000, 0.000000000000000000, 1.000000000000000000 ) ) ;
#276 = CIRCLE ( 'NONE', #146, 1.100000000000000089 ) ;
#277 = PERSON_AND_ORGANIZATION ( #62, #150 ) ;
#278 = CARTESIAN_POINT ( 'NONE',  ( 0.000000000000000000, 0.000000000000000000, 2.000000000000000000 ) ) ;
#279 = DIRECTION ( 'NONE',  ( 1.000000000000000000, 0.000000000000000000, 0.000000000000000000 ) ) ;
#280 = DIRECTION ( 'NONE',  ( 0.000000000000000000, 0.000000000000000000, 1.000000000000000000 ) ) ;
#281 = DIRECTION ( 'NONE',  ( -0.000000000000000000, -0.000000000000000000, -1.000000000000000000 ) ) ;
#282 = CARTESIAN_POINT ( 'NONE',  ( 2.000000000000000000, 2.449293598294706414E-16, 2.000000000000000000 ) ) ;
#283 = VECTOR ( 'NONE', #233, 1000.000000000000000 ) ;
#284 = LOCAL_TIME ( 14, 57, 16.00000000000000000, #157 ) ;
#285 = DIRECTION ( 'NONE',  ( -0.000000000000000000, -0.000000000000000000, -1.000000000000000000 ) ) ;
#286 = TOROIDAL_SURFACE ( 'NONE', #298, 1.300000000000000266, 0.2000000000000000111 ) ;
#287 = ORIENTED_EDGE ( 'NONE', *, *, #48, .T. ) ;
#288 = VERTEX_POINT ( 'NONE', #181 ) ;
#289 = EDGE_LOOP ( 'NONE', ( #44, #265, #6, #72 ) ) ;
#290 =( NAMED_UNIT ( * ) SI_UNIT ( $, .STERADIAN. ) SOLID_ANGLE_UNIT ( ) );
#291 = ORIENTED_EDGE ( 'NONE', *, *, #300, .F. ) ;
#292 = DIRECTION ( 'NONE',  ( 1.000000000000000000, 0.000000000000000000, 0.000000000000000000 ) ) ;
#293 = ORIENTED_EDGE ( 'NONE', *, *, #113, .F. ) ;
#294 = APPLICATION_PROTOCOL_DEFINITION ( 'international standard', 'config_control_design', 1994, #12 ) ;
#295 = SHAPE_DEFINITION_REPRESENTATION ( #116, #251 ) ;
#296 = AXIS2_PLACEMENT_3D ( 'NONE', #128, #75, #125 ) ;
#297 = CARTESIAN_POINT ( 'NONE',  ( 1.100000000000000089, 1.347111479062088503E-16, 252.0000000000000000 ) ) ;
#298 = AXIS2_PLACEMENT_3D ( 'NONE', #36, #65, #137 ) ;
#299 = APPROVAL_PERSON_ORGANIZATION ( #133, #131, #227 ) ;
#300 = EDGE_CURVE ( 'NONE', #151, #229, #276, .T. ) ;
#301 = DIRECTION ( 'NONE',  ( -0.000000000000000000, -0.000000000000000000, -1.000000000000000000 ) ) ;
#302 = DIRECTION ( 'NONE',  ( 1.000000000000000000, 0.000000000000000000, -0.000000000000000000 ) ) ;
#303 = DIRECTION ( 'NONE',  ( 1.000000000000000000, 0.000000000000000000, -0.000000000000000000 ) ) ;
#304 = CYLINDRICAL_SURFACE ( 'NONE', #222, 1.100000000000000089 ) ;
#305 = AXIS2_PLACEMENT_3D ( 'NONE', #17, #195, #67 ) ;
#306 = APPROVAL_PERSON_ORGANIZATION ( #230, #94, #100 ) ;
#307 = EDGE_CURVE ( 'NONE', #204, #266, #56, .T. ) ;
ENDSEC;
END-ISO-10303-21;
