ISO-10303-21;
HEADER;
FILE_DESCRIPTION (( 'STEP AP203' ),
    '1' );
FILE_NAME ('1577.STEP',
    '2022-07-07T12:56:06',
    ( '' ),
    ( '' ),
    'SwSTEP 2.0',
    'SolidWorks 2019',
    '' );
FILE_SCHEMA (( 'CONFIG_CONTROL_DESIGN' ));
ENDSEC;

DATA;
#1 = DIRECTION ( 'NONE',  ( 0.000000000000000000, -1.000000000000000000, 0.000000000000000000 ) ) ;
#2 = ORIENTED_EDGE ( 'NONE', *, *, #4, .F. ) ;
#3 = DESIGN_CONTEXT ( 'detailed design', #15, 'design' ) ;
#4 = EDGE_CURVE ( 'NONE', #168, #43, #80, .T. ) ;
#5 = DIRECTION ( 'NONE',  ( 1.000000000000000000, 0.000000000000000000, 0.000000000000000000 ) ) ;
#6 = DIRECTION ( 'NONE',  ( 1.000000000000000000, 0.000000000000000000, -0.000000000000000000 ) ) ;
#7 = APPROVAL_PERSON_ORGANIZATION ( #248, #193, #36 ) ;
#8 = DIRECTION ( 'NONE',  ( -1.000000000000000000, 0.000000000000000000, 0.000000000000000000 ) ) ;
#9 = PERSON_AND_ORGANIZATION ( #44, #88 ) ;
#10 = DIRECTION ( 'NONE',  ( 1.000000000000000000, 0.000000000000000000, 0.000000000000000000 ) ) ;
#11 = COORDINATED_UNIVERSAL_TIME_OFFSET ( 1, 0, .AHEAD. ) ;
#12 = AXIS2_PLACEMENT_3D ( 'NONE', #102, #74, #307 ) ;
#13 = DIRECTION ( 'NONE',  ( -0.000000000000000000, -0.000000000000000000, -1.000000000000000000 ) ) ;
#14 = COORDINATED_UNIVERSAL_TIME_OFFSET ( 1, 0, .AHEAD. ) ;
#15 = APPLICATION_CONTEXT ( 'configuration controlled 3d designs of mechanical parts and assemblies' ) ;
#16 = DIRECTION ( 'NONE',  ( -1.000000000000000000, 1.224646799147353207E-16, 0.000000000000000000 ) ) ;
#17 = SHAPE_DEFINITION_REPRESENTATION ( #137, #169 ) ;
#18 = CC_DESIGN_PERSON_AND_ORGANIZATION_ASSIGNMENT ( #267, #139, ( #233 ) ) ;
#19 = APPLICATION_PROTOCOL_DEFINITION ( 'international standard', 'config_control_design', 1994, #15 ) ;
#20 = AXIS2_PLACEMENT_3D ( 'NONE', #108, #176, #8 ) ;
#21 = EDGE_LOOP ( 'NONE', ( #213, #117 ) ) ;
#22 = CIRCLE ( 'NONE', #164, 0.2000000000000000944 ) ;
#23 = SECURITY_CLASSIFICATION ( '', '', #184 ) ;
#24 = CARTESIAN_POINT ( 'NONE',  ( 0.000000000000000000, 0.000000000000000000, 0.000000000000000000 ) ) ;
#25 = CARTESIAN_POINT ( 'NONE',  ( 0.000000000000000000, 0.000000000000000000, 2.200000000000007283 ) ) ;
#26 = ORIENTED_EDGE ( 'NONE', *, *, #189, .T. ) ;
#27 = AXIS2_PLACEMENT_3D ( 'NONE', #31, #35, #241 ) ;
#28 = LOCAL_TIME ( 14, 56, 6.000000000000000000, #272 ) ;
#29 = ORIENTED_EDGE ( 'NONE', *, *, #306, .F. ) ;
#30 = CARTESIAN_POINT ( 'NONE',  ( 1.250000000000000000, 1.530808498934191571E-16, 2.200000000000007283 ) ) ;
#31 = CARTESIAN_POINT ( 'NONE',  ( 0.000000000000000000, 0.000000000000000000, 202.0000000000000000 ) ) ;
#32 = CARTESIAN_POINT ( 'NONE',  ( 0.000000000000000000, 0.000000000000000000, 0.000000000000000000 ) ) ;
#33 = DATE_AND_TIME ( #296, #304 ) ;
#34 = PRODUCT_RELATED_PRODUCT_CATEGORY ( 'detail', '', ( #233 ) ) ;
#35 = DIRECTION ( 'NONE',  ( 0.000000000000000000, 0.000000000000000000, 1.000000000000000000 ) ) ;
#36 = APPROVAL_ROLE ( '' ) ;
#37 = CARTESIAN_POINT ( 'NONE',  ( -2.500000000000000000, 0.000000000000000000, 0.000000000000000000 ) ) ;
#38 = LINE ( 'NONE', #81, #165 ) ;
#39 = EDGE_CURVE ( 'NONE', #43, #168, #293, .T. ) ;
#40 = AXIS2_PLACEMENT_3D ( 'NONE', #131, #223, #10 ) ;
#41 = DATE_TIME_ROLE ( 'classification_date' ) ;
#42 = PERSON_AND_ORGANIZATION_ROLE ( 'creator' ) ;
#43 = VERTEX_POINT ( 'NONE', #281 ) ;
#44 = PERSON ( 'NEURÈENÝ', 'NEURÈENÝ', 'NEURÈENÝ', ('NEURÈENÝ'), ('NEURÈENÝ'), ('NEURÈENÝ') ) ;
#45 = ADVANCED_FACE ( 'NONE', ( #192 ), #215, .T. ) ;
#46 = ORIENTED_EDGE ( 'NONE', *, *, #39, .F. ) ;
#47 = ORIENTED_EDGE ( 'NONE', *, *, #109, .T. ) ;
#48 = LOCAL_TIME ( 14, 56, 6.000000000000000000, #14 ) ;
#49 = CARTESIAN_POINT ( 'NONE',  ( 0.000000000000000000, 0.000000000000000000, 2.000000000000000000 ) ) ;
#50 = ORIENTED_EDGE ( 'NONE', *, *, #198, .F. ) ;
#51 = ADVANCED_FACE ( 'NONE', ( #166 ), #260, .T. ) ;
#52 = ORIENTED_EDGE ( 'NONE', *, *, #226, .F. ) ;
#53 = VECTOR ( 'NONE', #79, 1000.000000000000000 ) ;
#54 = CARTESIAN_POINT ( 'NONE',  ( -1.450000000000000178, 1.775737858763662409E-16, 2.000000000000003553 ) ) ;
#55 = DIRECTION ( 'NONE',  ( -0.000000000000000000, -0.000000000000000000, -1.000000000000000000 ) ) ;
#56 = CARTESIAN_POINT ( 'NONE',  ( 2.500000000000000000, 3.061616997868383141E-16, 0.000000000000000000 ) ) ;
#57 = DIRECTION ( 'NONE',  ( 0.000000000000000000, 0.000000000000000000, 1.000000000000000000 ) ) ;
#58 = PERSON_AND_ORGANIZATION_ROLE ( 'classification_officer' ) ;
#59 = CARTESIAN_POINT ( 'NONE',  ( 0.000000000000000000, 0.000000000000000000, 2.200000000000007283 ) ) ;
#60 = CALENDAR_DATE ( 2022, 7, 7 ) ;
#61 = FACE_BOUND ( 'NONE', #97, .T. ) ;
#62 = DATE_TIME_ROLE ( 'creation_date' ) ;
#63 = CARTESIAN_POINT ( 'NONE',  ( 0.000000000000000000, 0.000000000000000000, 202.0000000000000000 ) ) ;
#64 = CC_DESIGN_APPROVAL ( #182, ( #23 ) ) ;
#65 = ORIENTED_EDGE ( 'NONE', *, *, #295, .T. ) ;
#66 = EDGE_LOOP ( 'NONE', ( #29, #92, #254, #256 ) ) ;
#67 = AXIS2_PLACEMENT_3D ( 'NONE', #63, #197, #206 ) ;
#68 = VERTEX_POINT ( 'NONE', #284 ) ;
#69 = EDGE_CURVE ( 'NONE', #94, #72, #279, .T. ) ;
#70 = DIRECTION ( 'NONE',  ( 1.000000000000000000, 0.000000000000000000, 0.000000000000000000 ) ) ;
#71 =( GEOMETRIC_REPRESENTATION_CONTEXT ( 3 ) GLOBAL_UNCERTAINTY_ASSIGNED_CONTEXT ( ( #282 ) ) GLOBAL_UNIT_ASSIGNED_CONTEXT ( ( #250, #299, #201 ) ) REPRESENTATION_CONTEXT ( 'NONE', 'WORKASPACE' ) );
#72 = VERTEX_POINT ( 'NONE', #98 ) ;
#73 = ADVANCED_FACE ( 'NONE', ( #172 ), #99, .F. ) ;
#74 = DIRECTION ( 'NONE',  ( 0.000000000000000000, 0.000000000000000000, 1.000000000000000000 ) ) ;
#75 = DIRECTION ( 'NONE',  ( 0.000000000000000000, 0.000000000000000000, -1.000000000000000000 ) ) ;
#76 = VERTEX_POINT ( 'NONE', #54 ) ;
#77 = CARTESIAN_POINT ( 'NONE',  ( 0.000000000000000000, 0.000000000000000000, 2.000000000000000000 ) ) ;
#78 = CC_DESIGN_PERSON_AND_ORGANIZATION_ASSIGNMENT ( #89, #58, ( #23 ) ) ;
#79 = DIRECTION ( 'NONE',  ( -0.000000000000000000, -0.000000000000000000, -1.000000000000000000 ) ) ;
#80 = CIRCLE ( 'NONE', #236, 2.500000000000000000 ) ;
#81 = CARTESIAN_POINT ( 'NONE',  ( -1.250000000000000000, 0.000000000000000000, 202.0000000000000000 ) ) ;
#82 = APPROVAL_STATUS ( 'not_yet_approved' ) ;
#83 = EDGE_CURVE ( 'NONE', #301, #94, #171, .T. ) ;
#84 = LINE ( 'NONE', #271, #212 ) ;
#85 = CARTESIAN_POINT ( 'NONE',  ( 1.250000000000000000, 1.530808498934191571E-16, 202.0000000000000000 ) ) ;
#86 = PERSON_AND_ORGANIZATION ( #44, #88 ) ;
#87 = AXIS2_PLACEMENT_3D ( 'NONE', #245, #218, #290 ) ;
#88 = ORGANIZATION ( 'NEURÈENÝ', 'NEURÈENÝ', '' ) ;
#89 = PERSON_AND_ORGANIZATION ( #44, #88 ) ;
#90 = ORIENTED_EDGE ( 'NONE', *, *, #69, .T. ) ;
#91 = ADVANCED_FACE ( 'NONE', ( #239 ), #210, .F. ) ;
#92 = ORIENTED_EDGE ( 'NONE', *, *, #189, .F. ) ;
#93 = CLOSED_SHELL ( 'NONE', ( #259, #51, #167, #163, #140, #73, #45, #155, #91 ) ) ;
#94 = VERTEX_POINT ( 'NONE', #30 ) ;
#95 = PRODUCT_DEFINITION_FORMATION_WITH_SPECIFIED_SOURCE ( 'LIBOVOLNÝ', '', #233, .NOT_KNOWN. ) ;
#96 = EDGE_CURVE ( 'NONE', #72, #76, #119, .T. ) ;
#97 = EDGE_LOOP ( 'NONE', ( #216, #231 ) ) ;
#98 = CARTESIAN_POINT ( 'NONE',  ( 1.450000000000000178, 0.000000000000000000, 2.000000000000003553 ) ) ;
#99 = PLANE ( 'NONE',  #261 ) ;
#100 = VECTOR ( 'NONE', #138, 1000.000000000000000 ) ;
#101 = EDGE_LOOP ( 'NONE', ( #26, #277 ) ) ;
#102 = CARTESIAN_POINT ( 'NONE',  ( 0.000000000000000000, 0.000000000000000000, 2.000000000000000000 ) ) ;
#103 = DIRECTION ( 'NONE',  ( 1.000000000000000000, 0.000000000000000000, 0.000000000000000000 ) ) ;
#104 = EDGE_CURVE ( 'NONE', #68, #301, #38, .T. ) ;
#105 = DIRECTION ( 'NONE',  ( 1.000000000000000000, 0.000000000000000000, 0.000000000000000000 ) ) ;
#106 = DIRECTION ( 'NONE',  ( 1.224646799147353207E-16, 1.000000000000000000, -0.000000000000000000 ) ) ;
#107 = DIRECTION ( 'NONE',  ( 1.000000000000000000, 0.000000000000000000, 0.000000000000000000 ) ) ;
#108 = CARTESIAN_POINT ( 'NONE',  ( 0.000000000000000000, 0.000000000000000000, 2.000000000000000000 ) ) ;
#109 = EDGE_CURVE ( 'NONE', #301, #76, #22, .T. ) ;
#110 = APPROVAL_ROLE ( '' ) ;
#111 = CIRCLE ( 'NONE', #263, 2.500000000000000000 ) ;
#112 = DIRECTION ( 'NONE',  ( -1.000000000000000000, 0.000000000000000000, 0.000000000000000000 ) ) ;
#113 = PERSON_AND_ORGANIZATION ( #44, #88 ) ;
#114 = CARTESIAN_POINT ( 'NONE',  ( -1.450000000000000178, 1.775737858763662163E-16, 2.200000000000007283 ) ) ;
#115 = PERSON_AND_ORGANIZATION ( #44, #88 ) ;
#116 = CC_DESIGN_PERSON_AND_ORGANIZATION_ASSIGNMENT ( #113, #181, ( #95 ) ) ;
#117 = ORIENTED_EDGE ( 'NONE', *, *, #39, .T. ) ;
#118 = ORIENTED_EDGE ( 'NONE', *, *, #253, .T. ) ;
#119 = CIRCLE ( 'NONE', #158, 1.450000000000000178 ) ;
#120 = ORIENTED_EDGE ( 'NONE', *, *, #295, .F. ) ;
#121 = ORIENTED_EDGE ( 'NONE', *, *, #146, .T. ) ;
#122 = DIRECTION ( 'NONE',  ( 0.000000000000000000, 0.000000000000000000, 1.000000000000000000 ) ) ;
#123 = AXIS2_PLACEMENT_3D ( 'NONE', #234, #191, #190 ) ;
#124 = ORIENTED_EDGE ( 'NONE', *, *, #83, .F. ) ;
#125 = ORIENTED_EDGE ( 'NONE', *, *, #69, .F. ) ;
#126 = CARTESIAN_POINT ( 'NONE',  ( 0.000000000000000000, 0.000000000000000000, 2.200000000000007283 ) ) ;
#127 = AXIS2_PLACEMENT_3D ( 'NONE', #237, #55, #194 ) ;
#128 = AXIS2_PLACEMENT_3D ( 'NONE', #134, #177, #107 ) ;
#129 = DIRECTION ( 'NONE',  ( -0.000000000000000000, -0.000000000000000000, -1.000000000000000000 ) ) ;
#130 = APPROVAL_DATE_TIME ( #161, #232 ) ;
#131 = CARTESIAN_POINT ( 'NONE',  ( 0.000000000000000000, 0.000000000000000000, 0.000000000000000000 ) ) ;
#132 = PERSON_AND_ORGANIZATION ( #44, #88 ) ;
#133 = DIRECTION ( 'NONE',  ( 0.000000000000000000, 0.000000000000000000, 1.000000000000000000 ) ) ;
#134 = CARTESIAN_POINT ( 'NONE',  ( 0.000000000000000000, 0.000000000000000000, 0.000000000000000000 ) ) ;
#135 = DIRECTION ( 'NONE',  ( -0.000000000000000000, -0.000000000000000000, -1.000000000000000000 ) ) ;
#136 = DATE_AND_TIME ( #60, #228 ) ;
#137 = PRODUCT_DEFINITION_SHAPE ( 'NONE', 'NONE',  #302 ) ;
#138 = DIRECTION ( 'NONE',  ( -0.000000000000000000, -0.000000000000000000, -1.000000000000000000 ) ) ;
#139 = PERSON_AND_ORGANIZATION_ROLE ( 'design_owner' ) ;
#140 = ADVANCED_FACE ( 'NONE', ( #61, #200 ), #265, .T. ) ;
#141 = MANIFOLD_SOLID_BREP ( 'Zaoblit1', #93 ) ;
#142 = VERTEX_POINT ( 'NONE', #56 ) ;
#143 = CC_DESIGN_PERSON_AND_ORGANIZATION_ASSIGNMENT ( #86, #42, ( #95 ) ) ;
#144 = ORIENTED_EDGE ( 'NONE', *, *, #306, .T. ) ;
#145 = EDGE_LOOP ( 'NONE', ( #252, #262, #90, #52 ) ) ;
#146 = EDGE_CURVE ( 'NONE', #94, #301, #153, .T. ) ;
#147 = ORIENTED_EDGE ( 'NONE', *, *, #96, .F. ) ;
#148 = AXIS2_PLACEMENT_3D ( 'NONE', #150, #1, #75 ) ;
#149 = ORIENTED_EDGE ( 'NONE', *, *, #268, .F. ) ;
#150 = CARTESIAN_POINT ( 'NONE',  ( 1.450000000000000178, 0.000000000000000000, 2.200000000000007283 ) ) ;
#151 = ORIENTED_EDGE ( 'NONE', *, *, #104, .F. ) ;
#152 = FACE_OUTER_BOUND ( 'NONE', #286, .T. ) ;
#153 = CIRCLE ( 'NONE', #87, 1.250000000000000000 ) ;
#154 = CARTESIAN_POINT ( 'NONE',  ( 0.000000000000000000, 0.000000000000000000, 2.000000000000000000 ) ) ;
#155 = ADVANCED_FACE ( 'NONE', ( #294 ), #269, .T. ) ;
#156 = DIRECTION ( 'NONE',  ( 1.000000000000000000, 0.000000000000000000, 0.000000000000000000 ) ) ;
#157 = DIRECTION ( 'NONE',  ( -0.000000000000000000, -0.000000000000000000, -1.000000000000000000 ) ) ;
#158 = AXIS2_PLACEMENT_3D ( 'NONE', #195, #289, #105 ) ;
#159 = CALENDAR_DATE ( 2022, 7, 7 ) ;
#160 = CC_DESIGN_APPROVAL ( #232, ( #302 ) ) ;
#161 = DATE_AND_TIME ( #159, #249 ) ;
#162 = VERTEX_POINT ( 'NONE', #37 ) ;
#163 = ADVANCED_FACE ( 'NONE', ( #225 ), #180, .T. ) ;
#164 = AXIS2_PLACEMENT_3D ( 'NONE', #114, #106, #16 ) ;
#165 = VECTOR ( 'NONE', #135, 1000.000000000000000 ) ;
#166 = FACE_OUTER_BOUND ( 'NONE', #235, .T. ) ;
#167 = ADVANCED_FACE ( 'NONE', ( #152 ), #203, .T. ) ;
#168 = VERTEX_POINT ( 'NONE', #242 ) ;
#169 = ADVANCED_BREP_SHAPE_REPRESENTATION ( '1577', ( #141, #128 ), #71 ) ;
#170 = EDGE_LOOP ( 'NONE', ( #214, #2, #65, #278 ) ) ;
#171 = CIRCLE ( 'NONE', #207, 1.250000000000000000 ) ;
#172 = FACE_OUTER_BOUND ( 'NONE', #187, .T. ) ;
#173 = CIRCLE ( 'NONE', #40, 2.500000000000000000 ) ;
#174 = ORIENTED_EDGE ( 'NONE', *, *, #268, .T. ) ;
#175 = CARTESIAN_POINT ( 'NONE',  ( 0.000000000000000000, 0.000000000000000000, 2.000000000000000000 ) ) ;
#176 = DIRECTION ( 'NONE',  ( -0.000000000000000000, -0.000000000000000000, -1.000000000000000000 ) ) ;
#177 = DIRECTION ( 'NONE',  ( 0.000000000000000000, 0.000000000000000000, 1.000000000000000000 ) ) ;
#178 = DIRECTION ( 'NONE',  ( 1.000000000000000000, 0.000000000000000000, 0.000000000000000000 ) ) ;
#179 = CALENDAR_DATE ( 2022, 7, 7 ) ;
#180 = CYLINDRICAL_SURFACE ( 'NONE', #255, 2.500000000000000000 ) ;
#181 = PERSON_AND_ORGANIZATION_ROLE ( 'design_supplier' ) ;
#182 = APPROVAL ( #224, 'NEURÈENÝ' ) ;
#183 = DIRECTION ( 'NONE',  ( 0.000000000000000000, 0.000000000000000000, 1.000000000000000000 ) ) ;
#184 = SECURITY_CLASSIFICATION_LEVEL ( 'unclassified' ) ;
#185 = EDGE_LOOP ( 'NONE', ( #124, #47, #147, #125 ) ) ;
#186 = AXIS2_PLACEMENT_3D ( 'NONE', #175, #129, #178 ) ;
#187 = EDGE_LOOP ( 'NONE', ( #211, #149 ) ) ;
#188 = CC_DESIGN_APPROVAL ( #193, ( #95 ) ) ;
#189 = EDGE_CURVE ( 'NONE', #68, #209, #202, .T. ) ;
#190 = DIRECTION ( 'NONE',  ( -1.000000000000000000, 0.000000000000000000, 0.000000000000000000 ) ) ;
#191 = DIRECTION ( 'NONE',  ( -0.000000000000000000, -0.000000000000000000, -1.000000000000000000 ) ) ;
#192 = FACE_OUTER_BOUND ( 'NONE', #66, .T. ) ;
#193 = APPROVAL ( #82, 'NEURÈENÝ' ) ;
#194 = DIRECTION ( 'NONE',  ( -1.000000000000000000, 0.000000000000000000, 0.000000000000000000 ) ) ;
#195 = CARTESIAN_POINT ( 'NONE',  ( 0.000000000000000000, 0.000000000000000000, 2.000000000000000000 ) ) ;
#196 = DIRECTION ( 'NONE',  ( 1.000000000000000000, 0.000000000000000000, 0.000000000000000000 ) ) ;
#197 = DIRECTION ( 'NONE',  ( 0.000000000000000000, 0.000000000000000000, 1.000000000000000000 ) ) ;
#198 = EDGE_CURVE ( 'NONE', #209, #68, #283, .T. ) ;
#199 = APPLICATION_PROTOCOL_DEFINITION ( 'international standard', 'config_control_design', 1994, #287 ) ;
#200 = FACE_OUTER_BOUND ( 'NONE', #21, .T. ) ;
#201 =( NAMED_UNIT ( * ) SI_UNIT ( $, .STERADIAN. ) SOLID_ANGLE_UNIT ( ) );
#202 = CIRCLE ( 'NONE', #67, 1.250000000000000000 ) ;
#203 = CYLINDRICAL_SURFACE ( 'NONE', #20, 2.500000000000000000 ) ;
#204 = APPROVAL_DATE_TIME ( #270, #193 ) ;
#205 = EDGE_CURVE ( 'NONE', #162, #142, #111, .T. ) ;
#206 = DIRECTION ( 'NONE',  ( 1.000000000000000000, 0.000000000000000000, 0.000000000000000000 ) ) ;
#207 = AXIS2_PLACEMENT_3D ( 'NONE', #25, #258, #103 ) ;
#208 = APPROVAL_STATUS ( 'not_yet_approved' ) ;
#209 = VERTEX_POINT ( 'NONE', #273 ) ;
#210 = TOROIDAL_SURFACE ( 'NONE', #247, 1.450000000000000178, 0.2000000000000000111 ) ;
#211 = ORIENTED_EDGE ( 'NONE', *, *, #205, .F. ) ;
#212 = VECTOR ( 'NONE', #157, 1000.000000000000000 ) ;
#213 = ORIENTED_EDGE ( 'NONE', *, *, #4, .T. ) ;
#214 = ORIENTED_EDGE ( 'NONE', *, *, #253, .F. ) ;
#215 = CYLINDRICAL_SURFACE ( 'NONE', #123, 1.250000000000000000 ) ;
#216 = ORIENTED_EDGE ( 'NONE', *, *, #96, .T. ) ;
#217 = DIRECTION ( 'NONE',  ( 0.000000000000000000, 0.000000000000000000, 1.000000000000000000 ) ) ;
#218 = DIRECTION ( 'NONE',  ( 0.000000000000000000, 0.000000000000000000, 1.000000000000000000 ) ) ;
#219 = AXIS2_PLACEMENT_3D ( 'NONE', #77, #133, #6 ) ;
#220 = APPROVAL_PERSON_ORGANIZATION ( #132, #182, #110 ) ;
#221 = LINE ( 'NONE', #291, #53 ) ;
#222 = DATE_AND_TIME ( #243, #28 ) ;
#223 = DIRECTION ( 'NONE',  ( 0.000000000000000000, 0.000000000000000000, 1.000000000000000000 ) ) ;
#224 = APPROVAL_STATUS ( 'not_yet_approved' ) ;
#225 = FACE_OUTER_BOUND ( 'NONE', #170, .T. ) ;
#226 = EDGE_CURVE ( 'NONE', #76, #72, #280, .T. ) ;
#227 = TOROIDAL_SURFACE ( 'NONE', #303, 1.450000000000000178, 0.2000000000000000111 ) ;
#228 = LOCAL_TIME ( 14, 56, 6.000000000000000000, #11 ) ;
#229 = LINE ( 'NONE', #85, #100 ) ;
#230 = APPROVAL_DATE_TIME ( #136, #182 ) ;
#231 = ORIENTED_EDGE ( 'NONE', *, *, #226, .T. ) ;
#232 = APPROVAL ( #208, 'NEURÈENÝ' ) ;
#233 = PRODUCT ( '1577', '1577', '', ( #274 ) ) ;
#234 = CARTESIAN_POINT ( 'NONE',  ( 0.000000000000000000, 0.000000000000000000, 202.0000000000000000 ) ) ;
#235 = EDGE_LOOP ( 'NONE', ( #50, #144, #121, #151 ) ) ;
#236 = AXIS2_PLACEMENT_3D ( 'NONE', #49, #305, #70 ) ;
#237 = CARTESIAN_POINT ( 'NONE',  ( 0.000000000000000000, 0.000000000000000000, 202.0000000000000000 ) ) ;
#238 = AXIS2_PLACEMENT_3D ( 'NONE', #298, #183, #156 ) ;
#239 = FACE_OUTER_BOUND ( 'NONE', #145, .T. ) ;
#240 = DIRECTION ( 'NONE',  ( 1.000000000000000000, 0.000000000000000000, 0.000000000000000000 ) ) ;
#241 = DIRECTION ( 'NONE',  ( 1.000000000000000000, 0.000000000000000000, -0.000000000000000000 ) ) ;
#242 = CARTESIAN_POINT ( 'NONE',  ( -2.500000000000000000, 0.000000000000000000, 2.000000000000000000 ) ) ;
#243 = CALENDAR_DATE ( 2022, 7, 7 ) ;
#244 = CC_DESIGN_DATE_AND_TIME_ASSIGNMENT ( #33, #62, ( #302 ) ) ;
#245 = CARTESIAN_POINT ( 'NONE',  ( 0.000000000000000000, 0.000000000000000000, 2.200000000000007283 ) ) ;
#246 = CARTESIAN_POINT ( 'NONE',  ( -1.250000000000000000, 0.000000000000000000, 2.200000000000007283 ) ) ;
#247 = AXIS2_PLACEMENT_3D ( 'NONE', #126, #217, #5 ) ;
#248 = PERSON_AND_ORGANIZATION ( #44, #88 ) ;
#249 = LOCAL_TIME ( 14, 56, 6.000000000000000000, #276 ) ;
#250 =( LENGTH_UNIT ( ) NAMED_UNIT ( * ) SI_UNIT ( .MILLI., .METRE. ) );
#251 = PERSON_AND_ORGANIZATION_ROLE ( 'creator' ) ;
#252 = ORIENTED_EDGE ( 'NONE', *, *, #109, .F. ) ;
#253 = EDGE_CURVE ( 'NONE', #43, #142, #221, .T. ) ;
#254 = ORIENTED_EDGE ( 'NONE', *, *, #104, .T. ) ;
#255 = AXIS2_PLACEMENT_3D ( 'NONE', #154, #13, #112 ) ;
#256 = ORIENTED_EDGE ( 'NONE', *, *, #83, .T. ) ;
#257 = APPROVAL_PERSON_ORGANIZATION ( #115, #232, #300 ) ;
#258 = DIRECTION ( 'NONE',  ( 0.000000000000000000, 0.000000000000000000, 1.000000000000000000 ) ) ;
#259 = ADVANCED_FACE ( 'NONE', ( #266 ), #227, .F. ) ;
#260 = CYLINDRICAL_SURFACE ( 'NONE', #127, 1.250000000000000000 ) ;
#261 = AXIS2_PLACEMENT_3D ( 'NONE', #24, #122, #285 ) ;
#262 = ORIENTED_EDGE ( 'NONE', *, *, #146, .F. ) ;
#263 = AXIS2_PLACEMENT_3D ( 'NONE', #32, #297, #196 ) ;
#264 = CC_DESIGN_PERSON_AND_ORGANIZATION_ASSIGNMENT ( #9, #251, ( #302 ) ) ;
#265 = PLANE ( 'NONE',  #219 ) ;
#266 = FACE_OUTER_BOUND ( 'NONE', #185, .T. ) ;
#267 = PERSON_AND_ORGANIZATION ( #44, #88 ) ;
#268 = EDGE_CURVE ( 'NONE', #142, #162, #173, .T. ) ;
#269 = PLANE ( 'NONE',  #27 ) ;
#270 = DATE_AND_TIME ( #179, #48 ) ;
#271 = CARTESIAN_POINT ( 'NONE',  ( -2.500000000000000000, 0.000000000000000000, 2.000000000000000000 ) ) ;
#272 = COORDINATED_UNIVERSAL_TIME_OFFSET ( 1, 0, .AHEAD. ) ;
#273 = CARTESIAN_POINT ( 'NONE',  ( 1.250000000000000000, 1.530808498934191571E-16, 202.0000000000000000 ) ) ;
#274 = MECHANICAL_CONTEXT ( 'NONE', #287, 'mechanical' ) ;
#275 = CC_DESIGN_SECURITY_CLASSIFICATION ( #23, ( #95 ) ) ;
#276 = COORDINATED_UNIVERSAL_TIME_OFFSET ( 1, 0, .AHEAD. ) ;
#277 = ORIENTED_EDGE ( 'NONE', *, *, #198, .T. ) ;
#278 = ORIENTED_EDGE ( 'NONE', *, *, #205, .T. ) ;
#279 = CIRCLE ( 'NONE', #148, 0.2000000000000000944 ) ;
#280 = CIRCLE ( 'NONE', #186, 1.450000000000000178 ) ;
#281 = CARTESIAN_POINT ( 'NONE',  ( 2.500000000000000000, 3.061616997868383141E-16, 2.000000000000000000 ) ) ;
#282 = UNCERTAINTY_MEASURE_WITH_UNIT (LENGTH_MEASURE( 1.000000000000000082E-05 ), #250, 'distance_accuracy_value', 'NONE');
#283 = CIRCLE ( 'NONE', #238, 1.250000000000000000 ) ;
#284 = CARTESIAN_POINT ( 'NONE',  ( -1.250000000000000000, 0.000000000000000000, 202.0000000000000000 ) ) ;
#285 = DIRECTION ( 'NONE',  ( 1.000000000000000000, 0.000000000000000000, -0.000000000000000000 ) ) ;
#286 = EDGE_LOOP ( 'NONE', ( #46, #118, #174, #120 ) ) ;
#287 = APPLICATION_CONTEXT ( 'configuration controlled 3d designs of mechanical parts and assemblies' ) ;
#288 = CC_DESIGN_DATE_AND_TIME_ASSIGNMENT ( #222, #41, ( #23 ) ) ;
#289 = DIRECTION ( 'NONE',  ( -0.000000000000000000, -0.000000000000000000, -1.000000000000000000 ) ) ;
#290 = DIRECTION ( 'NONE',  ( 1.000000000000000000, 0.000000000000000000, 0.000000000000000000 ) ) ;
#291 = CARTESIAN_POINT ( 'NONE',  ( 2.500000000000000000, 3.061616997868383141E-16, 2.000000000000000000 ) ) ;
#292 = COORDINATED_UNIVERSAL_TIME_OFFSET ( 1, 0, .AHEAD. ) ;
#293 = CIRCLE ( 'NONE', #12, 2.500000000000000000 ) ;
#294 = FACE_OUTER_BOUND ( 'NONE', #101, .T. ) ;
#295 = EDGE_CURVE ( 'NONE', #168, #162, #84, .T. ) ;
#296 = CALENDAR_DATE ( 2022, 7, 7 ) ;
#297 = DIRECTION ( 'NONE',  ( 0.000000000000000000, 0.000000000000000000, 1.000000000000000000 ) ) ;
#298 = CARTESIAN_POINT ( 'NONE',  ( 0.000000000000000000, 0.000000000000000000, 202.0000000000000000 ) ) ;
#299 =( NAMED_UNIT ( * ) PLANE_ANGLE_UNIT ( ) SI_UNIT ( $, .RADIAN. ) );
#300 = APPROVAL_ROLE ( '' ) ;
#301 = VERTEX_POINT ( 'NONE', #246 ) ;
#302 = PRODUCT_DEFINITION ( 'NEZNÁMÝ', '', #95, #3 ) ;
#303 = AXIS2_PLACEMENT_3D ( 'NONE', #59, #57, #240 ) ;
#304 = LOCAL_TIME ( 14, 56, 6.000000000000000000, #292 ) ;
#305 = DIRECTION ( 'NONE',  ( 0.000000000000000000, 0.000000000000000000, 1.000000000000000000 ) ) ;
#306 = EDGE_CURVE ( 'NONE', #209, #94, #229, .T. ) ;
#307 = DIRECTION ( 'NONE',  ( 1.000000000000000000, 0.000000000000000000, 0.000000000000000000 ) ) ;
ENDSEC;
END-ISO-10303-21;
