ISO-10303-21;
HEADER;
FILE_DESCRIPTION (( 'STEP AP203' ),
    '1' );
FILE_NAME ('a2ea.STEP',
    '2022-07-07T12:27:20',
    ( '' ),
    ( '' ),
    'SwSTEP 2.0',
    'SolidWorks 2019',
    '' );
FILE_SCHEMA (( 'CONFIG_CONTROL_DESIGN' ));
ENDSEC;

DATA;
#1 = PLANE ( 'NONE',  #216 ) ;
#2 = DIRECTION ( 'NONE',  ( -0.000000000000000000, -0.000000000000000000, -1.000000000000000000 ) ) ;
#3 = DIRECTION ( 'NONE',  ( -1.000000000000000000, 1.224646799147353454E-16, 0.000000000000000000 ) ) ;
#4 = DATE_AND_TIME ( #224, #65 ) ;
#5 = DIRECTION ( 'NONE',  ( -0.000000000000000000, -0.000000000000000000, -1.000000000000000000 ) ) ;
#6 = CYLINDRICAL_SURFACE ( 'NONE', #30, 8.000000000000000000 ) ;
#7 = CARTESIAN_POINT ( 'NONE',  ( 8.000000000000000000, 9.797174393178825657E-16, 5.000000000000000000 ) ) ;
#8 = DIRECTION ( 'NONE',  ( 0.000000000000000000, 0.000000000000000000, 1.000000000000000000 ) ) ;
#9 = DATE_TIME_ROLE ( 'creation_date' ) ;
#10 = SECURITY_CLASSIFICATION ( '', '', #249 ) ;
#11 = DIRECTION ( 'NONE',  ( -0.000000000000000000, -0.000000000000000000, -1.000000000000000000 ) ) ;
#12 = LINE ( 'NONE', #36, #158 ) ;
#13 = PRODUCT_DEFINITION_SHAPE ( 'NONE', 'NONE',  #179 ) ;
#14 = ORIENTED_EDGE ( 'NONE', *, *, #161, .T. ) ;
#15 = AXIS2_PLACEMENT_3D ( 'NONE', #243, #247, #126 ) ;
#16 = ORIENTED_EDGE ( 'NONE', *, *, #92, .F. ) ;
#17 = APPLICATION_CONTEXT ( 'configuration controlled 3d designs of mechanical parts and assemblies' ) ;
#18 = EDGE_LOOP ( 'NONE', ( #258, #64 ) ) ;
#19 = EDGE_CURVE ( 'NONE', #178, #156, #229, .T. ) ;
#20 = EDGE_LOOP ( 'NONE', ( #283, #214, #14, #257 ) ) ;
#21 = AXIS2_PLACEMENT_3D ( 'NONE', #93, #72, #250 ) ;
#22 = EDGE_CURVE ( 'NONE', #119, #45, #46, .T. ) ;
#23 = EDGE_LOOP ( 'NONE', ( #231, #232 ) ) ;
#24 = APPROVAL_PERSON_ORGANIZATION ( #143, #296, #222 ) ;
#25 = DIRECTION ( 'NONE',  ( 0.000000000000000000, 0.000000000000000000, 1.000000000000000000 ) ) ;
#26 = PERSON_AND_ORGANIZATION ( #210, #307 ) ;
#27 = DIRECTION ( 'NONE',  ( 0.000000000000000000, 0.000000000000000000, 1.000000000000000000 ) ) ;
#28 = MECHANICAL_CONTEXT ( 'NONE', #242, 'mechanical' ) ;
#29 = DIRECTION ( 'NONE',  ( 1.000000000000000000, 0.000000000000000000, 0.000000000000000000 ) ) ;
#30 = AXIS2_PLACEMENT_3D ( 'NONE', #38, #59, #129 ) ;
#31 = APPLICATION_PROTOCOL_DEFINITION ( 'international standard', 'config_control_design', 1994, #17 ) ;
#32 = FACE_OUTER_BOUND ( 'NONE', #18, .T. ) ;
#33 = FACE_OUTER_BOUND ( 'NONE', #108, .T. ) ;
#34 = PERSON_AND_ORGANIZATION ( #210, #307 ) ;
#35 = DIRECTION ( 'NONE',  ( 1.000000000000000000, 0.000000000000000000, -0.000000000000000000 ) ) ;
#36 = CARTESIAN_POINT ( 'NONE',  ( -5.099999999999999645, 0.000000000000000000, 105.0000000000000142 ) ) ;
#37 = VECTOR ( 'NONE', #60, 1000.000000000000000 ) ;
#38 = CARTESIAN_POINT ( 'NONE',  ( 0.000000000000000000, 0.000000000000000000, 5.000000000000000000 ) ) ;
#39 = EDGE_CURVE ( 'NONE', #156, #45, #234, .T. ) ;
#40 = EDGE_LOOP ( 'NONE', ( #66, #157, #180, #87 ) ) ;
#41 = ORIENTED_EDGE ( 'NONE', *, *, #284, .F. ) ;
#42 = VECTOR ( 'NONE', #2, 1000.000000000000000 ) ;
#43 = ORIENTED_EDGE ( 'NONE', *, *, #163, .T. ) ;
#44 = EDGE_CURVE ( 'NONE', #285, #304, #94, .T. ) ;
#45 = VERTEX_POINT ( 'NONE', #237 ) ;
#46 = CIRCLE ( 'NONE', #146, 0.1999999999999996503 ) ;
#47 = CIRCLE ( 'NONE', #147, 5.099999999999999645 ) ;
#48 = LINE ( 'NONE', #140, #181 ) ;
#49 = CALENDAR_DATE ( 2022, 7, 7 ) ;
#50 = DIRECTION ( 'NONE',  ( 0.000000000000000000, 0.000000000000000000, 1.000000000000000000 ) ) ;
#51 = PERSON_AND_ORGANIZATION ( #210, #307 ) ;
#52 = CARTESIAN_POINT ( 'NONE',  ( 0.000000000000000000, 0.000000000000000000, 5.199999999999996625 ) ) ;
#53 = PERSON_AND_ORGANIZATION_ROLE ( 'design_supplier' ) ;
#54 = DIRECTION ( 'NONE',  ( 1.000000000000000000, 0.000000000000000000, 0.000000000000000000 ) ) ;
#55 = FACE_OUTER_BOUND ( 'NONE', #23, .T. ) ;
#56 = CC_DESIGN_APPROVAL ( #296, ( #179 ) ) ;
#57 = COORDINATED_UNIVERSAL_TIME_OFFSET ( 1, 0, .AHEAD. ) ;
#58 = FACE_BOUND ( 'NONE', #182, .T. ) ;
#59 = DIRECTION ( 'NONE',  ( -0.000000000000000000, -0.000000000000000000, -1.000000000000000000 ) ) ;
#60 = DIRECTION ( 'NONE',  ( -0.000000000000000000, -0.000000000000000000, -1.000000000000000000 ) ) ;
#61 = ADVANCED_FACE ( 'NONE', ( #116 ), #114, .F. ) ;
#62 = ORIENTED_EDGE ( 'NONE', *, *, #163, .F. ) ;
#63 = ADVANCED_BREP_SHAPE_REPRESENTATION ( 'a2ea', ( #230, #132 ), #138 ) ;
#64 = ORIENTED_EDGE ( 'NONE', *, *, #284, .T. ) ;
#65 = LOCAL_TIME ( 14, 27, 20.00000000000000000, #194 ) ;
#66 = ORIENTED_EDGE ( 'NONE', *, *, #22, .F. ) ;
#67 = ORIENTED_EDGE ( 'NONE', *, *, #161, .F. ) ;
#68 = CC_DESIGN_DATE_AND_TIME_ASSIGNMENT ( #4, #9, ( #179 ) ) ;
#69 = CIRCLE ( 'NONE', #137, 8.000000000000000000 ) ;
#70 = ADVANCED_FACE ( 'NONE', ( #32 ), #1, .T. ) ;
#71 = DIRECTION ( 'NONE',  ( 0.000000000000000000, 0.000000000000000000, 1.000000000000000000 ) ) ;
#72 = DIRECTION ( 'NONE',  ( 0.000000000000000000, 0.000000000000000000, 1.000000000000000000 ) ) ;
#73 = AXIS2_PLACEMENT_3D ( 'NONE', #248, #301, #295 ) ;
#74 = DIRECTION ( 'NONE',  ( 1.000000000000000000, 0.000000000000000000, 0.000000000000000000 ) ) ;
#75 = DIRECTION ( 'NONE',  ( -1.000000000000000000, 0.000000000000000000, 0.000000000000000000 ) ) ;
#76 = COORDINATED_UNIVERSAL_TIME_OFFSET ( 1, 0, .AHEAD. ) ;
#77 = ORIENTED_EDGE ( 'NONE', *, *, #92, .T. ) ;
#78 = DIRECTION ( 'NONE',  ( -0.000000000000000000, -0.000000000000000000, -1.000000000000000000 ) ) ;
#79 = DATE_AND_TIME ( #294, #139 ) ;
#80 = ADVANCED_FACE ( 'NONE', ( #117 ), #220, .T. ) ;
#81 = CARTESIAN_POINT ( 'NONE',  ( 0.000000000000000000, 0.000000000000000000, 0.000000000000000000 ) ) ;
#82 = CALENDAR_DATE ( 2022, 7, 7 ) ;
#83 = DIRECTION ( 'NONE',  ( -1.000000000000000000, 0.000000000000000000, 0.000000000000000000 ) ) ;
#84 = FACE_OUTER_BOUND ( 'NONE', #20, .T. ) ;
#85 = EDGE_CURVE ( 'NONE', #304, #285, #259, .T. ) ;
#86 = AXIS2_PLACEMENT_3D ( 'NONE', #293, #218, #35 ) ;
#87 = ORIENTED_EDGE ( 'NONE', *, *, #187, .F. ) ;
#88 = ORIENTED_EDGE ( 'NONE', *, *, #39, .T. ) ;
#89 = CC_DESIGN_PERSON_AND_ORGANIZATION_ASSIGNMENT ( #51, #212, ( #107 ) ) ;
#90 = CARTESIAN_POINT ( 'NONE',  ( 0.000000000000000000, 0.000000000000000000, 0.000000000000000000 ) ) ;
#91 = DATE_AND_TIME ( #49, #289 ) ;
#92 = EDGE_CURVE ( 'NONE', #255, #239, #303, .T. ) ;
#93 = CARTESIAN_POINT ( 'NONE',  ( 0.000000000000000000, 0.000000000000000000, 5.199999999999996625 ) ) ;
#94 = CIRCLE ( 'NONE', #185, 8.000000000000000000 ) ;
#95 = AXIS2_PLACEMENT_3D ( 'NONE', #193, #286, #169 ) ;
#96 = DIRECTION ( 'NONE',  ( 1.000000000000000000, 0.000000000000000000, -0.000000000000000000 ) ) ;
#97 = APPROVAL_DATE_TIME ( #100, #296 ) ;
#98 = CARTESIAN_POINT ( 'NONE',  ( 0.000000000000000000, 0.000000000000000000, 5.000000000000000000 ) ) ;
#99 = FACE_OUTER_BOUND ( 'NONE', #184, .T. ) ;
#100 = DATE_AND_TIME ( #215, #115 ) ;
#101 = APPROVAL_ROLE ( '' ) ;
#102 = CARTESIAN_POINT ( 'NONE',  ( 0.000000000000000000, 0.000000000000000000, 105.0000000000000142 ) ) ;
#103 = APPLICATION_PROTOCOL_DEFINITION ( 'international standard', 'config_control_design', 1994, #242 ) ;
#104 = DIRECTION ( 'NONE',  ( -0.000000000000000000, -0.000000000000000000, -1.000000000000000000 ) ) ;
#105 = PLANE ( 'NONE',  #86 ) ;
#106 = FACE_OUTER_BOUND ( 'NONE', #203, .T. ) ;
#107 = PRODUCT ( 'a2ea', 'a2ea', '', ( #28 ) ) ;
#108 = EDGE_LOOP ( 'NONE', ( #160, #110, #77, #67 ) ) ;
#109 = VERTEX_POINT ( 'NONE', #148 ) ;
#110 = ORIENTED_EDGE ( 'NONE', *, *, #209, .T. ) ;
#111 = PRODUCT_RELATED_PRODUCT_CATEGORY ( 'detail', '', ( #107 ) ) ;
#112 = CIRCLE ( 'NONE', #186, 5.299999999999998934 ) ;
#113 = EDGE_CURVE ( 'NONE', #178, #119, #201, .T. ) ;
#114 = TOROIDAL_SURFACE ( 'NONE', #278, 5.299999999999998934, 0.2000000000000000111 ) ;
#115 = LOCAL_TIME ( 14, 27, 20.00000000000000000, #57 ) ;
#116 = FACE_OUTER_BOUND ( 'NONE', #40, .T. ) ;
#117 = FACE_OUTER_BOUND ( 'NONE', #204, .T. ) ;
#118 = APPROVAL_STATUS ( 'not_yet_approved' ) ;
#119 = VERTEX_POINT ( 'NONE', #162 ) ;
#120 =( LENGTH_UNIT ( ) NAMED_UNIT ( * ) SI_UNIT ( .MILLI., .METRE. ) );
#121 = AXIS2_PLACEMENT_3D ( 'NONE', #98, #27, #191 ) ;
#122 = CIRCLE ( 'NONE', #21, 5.099999999999999645 ) ;
#123 = CARTESIAN_POINT ( 'NONE',  ( 0.000000000000000000, 0.000000000000000000, 5.000000000000000000 ) ) ;
#124 = CYLINDRICAL_SURFACE ( 'NONE', #207, 5.099999999999999645 ) ;
#125 = APPROVAL_STATUS ( 'not_yet_approved' ) ;
#126 = DIRECTION ( 'NONE',  ( 1.000000000000000000, 0.000000000000000000, 0.000000000000000000 ) ) ;
#127 = DIRECTION ( 'NONE',  ( 1.000000000000000000, 0.000000000000000000, 0.000000000000000000 ) ) ;
#128 = CC_DESIGN_PERSON_AND_ORGANIZATION_ASSIGNMENT ( #130, #291, ( #179 ) ) ;
#129 = DIRECTION ( 'NONE',  ( -1.000000000000000000, 0.000000000000000000, 0.000000000000000000 ) ) ;
#130 = PERSON_AND_ORGANIZATION ( #210, #307 ) ;
#131 = CARTESIAN_POINT ( 'NONE',  ( 8.000000000000000000, 9.797174393178825657E-16, 5.000000000000000000 ) ) ;
#132 = AXIS2_PLACEMENT_3D ( 'NONE', #166, #241, #74 ) ;
#133 = CYLINDRICAL_SURFACE ( 'NONE', #263, 8.000000000000000000 ) ;
#134 = ORIENTED_EDGE ( 'NONE', *, *, #151, .T. ) ;
#135 = ORIENTED_EDGE ( 'NONE', *, *, #151, .F. ) ;
#136 = ORIENTED_EDGE ( 'NONE', *, *, #246, .F. ) ;
#137 = AXIS2_PLACEMENT_3D ( 'NONE', #81, #173, #272 ) ;
#138 =( GEOMETRIC_REPRESENTATION_CONTEXT ( 3 ) GLOBAL_UNCERTAINTY_ASSIGNED_CONTEXT ( ( #302 ) ) GLOBAL_UNIT_ASSIGNED_CONTEXT ( ( #120, #192, #153 ) ) REPRESENTATION_CONTEXT ( 'NONE', 'WORKASPACE' ) );
#139 = LOCAL_TIME ( 14, 27, 20.00000000000000000, #76 ) ;
#140 = CARTESIAN_POINT ( 'NONE',  ( -8.000000000000000000, 0.000000000000000000, 5.000000000000000000 ) ) ;
#141 = APPROVAL ( #195, 'NEURÈENÝ' ) ;
#142 = CARTESIAN_POINT ( 'NONE',  ( 5.299999999999998934, 0.000000000000000000, 4.999999999999998224 ) ) ;
#143 = PERSON_AND_ORGANIZATION ( #210, #307 ) ;
#144 = SHAPE_DEFINITION_REPRESENTATION ( #13, #63 ) ;
#145 = DIRECTION ( 'NONE',  ( 0.000000000000000000, 0.000000000000000000, 1.000000000000000000 ) ) ;
#146 = AXIS2_PLACEMENT_3D ( 'NONE', #165, #167, #3 ) ;
#147 = AXIS2_PLACEMENT_3D ( 'NONE', #274, #154, #152 ) ;
#148 = CARTESIAN_POINT ( 'NONE',  ( 5.099999999999999645, 6.245698675651500839E-16, 105.0000000000000142 ) ) ;
#149 = DIRECTION ( 'NONE',  ( 1.000000000000000000, 0.000000000000000000, 0.000000000000000000 ) ) ;
#150 = PERSON_AND_ORGANIZATION ( #210, #307 ) ;
#151 = EDGE_CURVE ( 'NONE', #109, #178, #288, .T. ) ;
#152 = DIRECTION ( 'NONE',  ( 1.000000000000000000, 0.000000000000000000, 0.000000000000000000 ) ) ;
#153 =( NAMED_UNIT ( * ) SI_UNIT ( $, .STERADIAN. ) SOLID_ANGLE_UNIT ( ) );
#154 = DIRECTION ( 'NONE',  ( 0.000000000000000000, 0.000000000000000000, 1.000000000000000000 ) ) ;
#155 = CARTESIAN_POINT ( 'NONE',  ( 0.000000000000000000, 0.000000000000000000, 5.199999999999996625 ) ) ;
#156 = VERTEX_POINT ( 'NONE', #142 ) ;
#157 = ORIENTED_EDGE ( 'NONE', *, *, #113, .F. ) ;
#158 = VECTOR ( 'NONE', #221, 1000.000000000000000 ) ;
#159 = CC_DESIGN_PERSON_AND_ORGANIZATION_ASSIGNMENT ( #34, #269, ( #260 ) ) ;
#160 = ORIENTED_EDGE ( 'NONE', *, *, #85, .F. ) ;
#161 = EDGE_CURVE ( 'NONE', #285, #239, #48, .T. ) ;
#162 = CARTESIAN_POINT ( 'NONE',  ( -5.099999999999999645, 0.000000000000000000, 5.199999999999996625 ) ) ;
#163 = EDGE_CURVE ( 'NONE', #119, #178, #122, .T. ) ;
#164 = LOCAL_TIME ( 14, 27, 20.00000000000000000, #297 ) ;
#165 = CARTESIAN_POINT ( 'NONE',  ( -5.299999999999998934, 6.490628035480970938E-16, 5.199999999999996625 ) ) ;
#166 = CARTESIAN_POINT ( 'NONE',  ( 0.000000000000000000, 0.000000000000000000, 0.000000000000000000 ) ) ;
#167 = DIRECTION ( 'NONE',  ( 1.224646799147353207E-16, 1.000000000000000000, -0.000000000000000000 ) ) ;
#168 = APPROVAL_DATE_TIME ( #79, #176 ) ;
#169 = DIRECTION ( 'NONE',  ( 0.000000000000000000, 0.000000000000000000, -1.000000000000000000 ) ) ;
#170 = CARTESIAN_POINT ( 'NONE',  ( 0.000000000000000000, 0.000000000000000000, 105.0000000000000142 ) ) ;
#171 = COORDINATED_UNIVERSAL_TIME_OFFSET ( 1, 0, .AHEAD. ) ;
#172 = AXIS2_PLACEMENT_3D ( 'NONE', #52, #71, #29 ) ;
#173 = DIRECTION ( 'NONE',  ( 0.000000000000000000, 0.000000000000000000, 1.000000000000000000 ) ) ;
#174 = PLANE ( 'NONE',  #73 ) ;
#175 = CARTESIAN_POINT ( 'NONE',  ( 5.099999999999999645, 6.245698675651500839E-16, 5.199999999999996625 ) ) ;
#176 = APPROVAL ( #118, 'NEURÈENÝ' ) ;
#177 = APPROVAL_PERSON_ORGANIZATION ( #219, #176, #244 ) ;
#178 = VERTEX_POINT ( 'NONE', #175 ) ;
#179 = PRODUCT_DEFINITION ( 'NEZNÁMÝ', '', #260, #281 ) ;
#180 = ORIENTED_EDGE ( 'NONE', *, *, #19, .T. ) ;
#181 = VECTOR ( 'NONE', #211, 1000.000000000000000 ) ;
#182 = EDGE_LOOP ( 'NONE', ( #88, #290 ) ) ;
#183 = EDGE_CURVE ( 'NONE', #306, #109, #245, .T. ) ;
#184 = EDGE_LOOP ( 'NONE', ( #62, #233, #305, #228 ) ) ;
#185 = AXIS2_PLACEMENT_3D ( 'NONE', #123, #25, #267 ) ;
#186 = AXIS2_PLACEMENT_3D ( 'NONE', #199, #11, #127 ) ;
#187 = EDGE_CURVE ( 'NONE', #45, #156, #112, .T. ) ;
#188 = DIRECTION ( 'NONE',  ( 0.000000000000000000, 0.000000000000000000, 1.000000000000000000 ) ) ;
#189 = CC_DESIGN_DATE_AND_TIME_ASSIGNMENT ( #270, #262, ( #10 ) ) ;
#190 = CARTESIAN_POINT ( 'NONE',  ( 0.000000000000000000, 0.000000000000000000, 105.0000000000000142 ) ) ;
#191 = DIRECTION ( 'NONE',  ( 1.000000000000000000, 0.000000000000000000, 0.000000000000000000 ) ) ;
#192 =( NAMED_UNIT ( * ) PLANE_ANGLE_UNIT ( ) SI_UNIT ( $, .RADIAN. ) );
#193 = CARTESIAN_POINT ( 'NONE',  ( 5.299999999999998934, 0.000000000000000000, 5.199999999999996625 ) ) ;
#194 = COORDINATED_UNIVERSAL_TIME_OFFSET ( 1, 0, .AHEAD. ) ;
#195 = APPROVAL_STATUS ( 'not_yet_approved' ) ;
#196 = FACE_OUTER_BOUND ( 'NONE', #208, .T. ) ;
#197 = PERSON_AND_ORGANIZATION_ROLE ( 'classification_officer' ) ;
#198 = DIRECTION ( 'NONE',  ( -1.000000000000000000, 0.000000000000000000, 0.000000000000000000 ) ) ;
#199 = CARTESIAN_POINT ( 'NONE',  ( 0.000000000000000000, 0.000000000000000000, 5.000000000000000000 ) ) ;
#200 = ADVANCED_FACE ( 'NONE', ( #99 ), #271, .F. ) ;
#201 = CIRCLE ( 'NONE', #172, 5.099999999999999645 ) ;
#202 = ORIENTED_EDGE ( 'NONE', *, *, #113, .T. ) ;
#203 = EDGE_LOOP ( 'NONE', ( #135, #282, #292, #43 ) ) ;
#204 = EDGE_LOOP ( 'NONE', ( #41, #134, #202, #136 ) ) ;
#205 = CC_DESIGN_APPROVAL ( #141, ( #10 ) ) ;
#206 = CLOSED_SHELL ( 'NONE', ( #200, #80, #213, #236, #275, #226, #254, #70, #61 ) ) ;
#207 = AXIS2_PLACEMENT_3D ( 'NONE', #102, #78, #83 ) ;
#208 = EDGE_LOOP ( 'NONE', ( #280, #16 ) ) ;
#209 = EDGE_CURVE ( 'NONE', #304, #255, #253, .T. ) ;
#210 = PERSON ( 'NEURÈENÝ', 'NEURÈENÝ', 'NEURÈENÝ', ('NEURÈENÝ'), ('NEURÈENÝ'), ('NEURÈENÝ') ) ;
#211 = DIRECTION ( 'NONE',  ( -0.000000000000000000, -0.000000000000000000, -1.000000000000000000 ) ) ;
#212 = PERSON_AND_ORGANIZATION_ROLE ( 'design_owner' ) ;
#213 = ADVANCED_FACE ( 'NONE', ( #33 ), #6, .T. ) ;
#214 = ORIENTED_EDGE ( 'NONE', *, *, #44, .F. ) ;
#215 = CALENDAR_DATE ( 2022, 7, 7 ) ;
#216 = AXIS2_PLACEMENT_3D ( 'NONE', #240, #145, #96 ) ;
#217 = CARTESIAN_POINT ( 'NONE',  ( 0.000000000000000000, 0.000000000000000000, 5.199999999999996625 ) ) ;
#218 = DIRECTION ( 'NONE',  ( 0.000000000000000000, 0.000000000000000000, 1.000000000000000000 ) ) ;
#219 = PERSON_AND_ORGANIZATION ( #210, #307 ) ;
#220 = CYLINDRICAL_SURFACE ( 'NONE', #298, 5.099999999999999645 ) ;
#221 = DIRECTION ( 'NONE',  ( -0.000000000000000000, -0.000000000000000000, -1.000000000000000000 ) ) ;
#222 = APPROVAL_ROLE ( '' ) ;
#223 = DIRECTION ( 'NONE',  ( 0.000000000000000000, 0.000000000000000000, 1.000000000000000000 ) ) ;
#224 = CALENDAR_DATE ( 2022, 7, 7 ) ;
#225 = CARTESIAN_POINT ( 'NONE',  ( -5.099999999999999645, 0.000000000000000000, 105.0000000000000142 ) ) ;
#226 = ADVANCED_FACE ( 'NONE', ( #196 ), #105, .F. ) ;
#227 = CARTESIAN_POINT ( 'NONE',  ( 0.000000000000000000, 0.000000000000000000, 5.000000000000000000 ) ) ;
#228 = ORIENTED_EDGE ( 'NONE', *, *, #19, .F. ) ;
#229 = CIRCLE ( 'NONE', #95, 0.1999999999999996503 ) ;
#230 = MANIFOLD_SOLID_BREP ( 'Zaoblit1', #206 ) ;
#231 = ORIENTED_EDGE ( 'NONE', *, *, #44, .T. ) ;
#232 = ORIENTED_EDGE ( 'NONE', *, *, #85, .T. ) ;
#233 = ORIENTED_EDGE ( 'NONE', *, *, #22, .T. ) ;
#234 = CIRCLE ( 'NONE', #15, 5.299999999999998934 ) ;
#235 = CC_DESIGN_SECURITY_CLASSIFICATION ( #10, ( #260 ) ) ;
#236 = ADVANCED_FACE ( 'NONE', ( #84 ), #133, .T. ) ;
#237 = CARTESIAN_POINT ( 'NONE',  ( -5.299999999999998934, 6.490628035480970938E-16, 4.999999999999998224 ) ) ;
#238 = APPROVAL_PERSON_ORGANIZATION ( #266, #141, #101 ) ;
#239 = VERTEX_POINT ( 'NONE', #300 ) ;
#240 = CARTESIAN_POINT ( 'NONE',  ( 0.000000000000000000, 0.000000000000000000, 105.0000000000000142 ) ) ;
#241 = DIRECTION ( 'NONE',  ( 0.000000000000000000, 0.000000000000000000, 1.000000000000000000 ) ) ;
#242 = APPLICATION_CONTEXT ( 'configuration controlled 3d designs of mechanical parts and assemblies' ) ;
#243 = CARTESIAN_POINT ( 'NONE',  ( 0.000000000000000000, 0.000000000000000000, 5.000000000000000000 ) ) ;
#244 = APPROVAL_ROLE ( '' ) ;
#245 = CIRCLE ( 'NONE', #299, 5.099999999999999645 ) ;
#246 = EDGE_CURVE ( 'NONE', #306, #119, #12, .T. ) ;
#247 = DIRECTION ( 'NONE',  ( -0.000000000000000000, -0.000000000000000000, -1.000000000000000000 ) ) ;
#248 = CARTESIAN_POINT ( 'NONE',  ( 0.000000000000000000, 0.000000000000000000, 5.000000000000000000 ) ) ;
#249 = SECURITY_CLASSIFICATION_LEVEL ( 'unclassified' ) ;
#250 = DIRECTION ( 'NONE',  ( 1.000000000000000000, 0.000000000000000000, 0.000000000000000000 ) ) ;
#251 = CARTESIAN_POINT ( 'NONE',  ( -8.000000000000000000, 0.000000000000000000, 5.000000000000000000 ) ) ;
#252 = AXIS2_PLACEMENT_3D ( 'NONE', #90, #188, #265 ) ;
#253 = LINE ( 'NONE', #7, #37 ) ;
#254 = ADVANCED_FACE ( 'NONE', ( #106 ), #124, .T. ) ;
#255 = VERTEX_POINT ( 'NONE', #268 ) ;
#256 = AXIS2_PLACEMENT_3D ( 'NONE', #155, #223, #149 ) ;
#257 = ORIENTED_EDGE ( 'NONE', *, *, #277, .T. ) ;
#258 = ORIENTED_EDGE ( 'NONE', *, *, #183, .T. ) ;
#259 = CIRCLE ( 'NONE', #121, 8.000000000000000000 ) ;
#260 = PRODUCT_DEFINITION_FORMATION_WITH_SPECIFIED_SOURCE ( 'LIBOVOLNÝ', '', #107, .NOT_KNOWN. ) ;
#261 = CARTESIAN_POINT ( 'NONE',  ( 5.099999999999999645, 6.245698675651500839E-16, 105.0000000000000142 ) ) ;
#262 = DATE_TIME_ROLE ( 'classification_date' ) ;
#263 = AXIS2_PLACEMENT_3D ( 'NONE', #227, #104, #198 ) ;
#264 = CC_DESIGN_PERSON_AND_ORGANIZATION_ASSIGNMENT ( #150, #53, ( #260 ) ) ;
#265 = DIRECTION ( 'NONE',  ( 1.000000000000000000, 0.000000000000000000, 0.000000000000000000 ) ) ;
#266 = PERSON_AND_ORGANIZATION ( #210, #307 ) ;
#267 = DIRECTION ( 'NONE',  ( 1.000000000000000000, 0.000000000000000000, 0.000000000000000000 ) ) ;
#268 = CARTESIAN_POINT ( 'NONE',  ( 8.000000000000000000, 9.797174393178825657E-16, 0.000000000000000000 ) ) ;
#269 = PERSON_AND_ORGANIZATION_ROLE ( 'creator' ) ;
#270 = DATE_AND_TIME ( #82, #164 ) ;
#271 = TOROIDAL_SURFACE ( 'NONE', #256, 5.299999999999998934, 0.2000000000000000111 ) ;
#272 = DIRECTION ( 'NONE',  ( 1.000000000000000000, 0.000000000000000000, 0.000000000000000000 ) ) ;
#273 = CC_DESIGN_PERSON_AND_ORGANIZATION_ASSIGNMENT ( #26, #197, ( #10 ) ) ;
#274 = CARTESIAN_POINT ( 'NONE',  ( 0.000000000000000000, 0.000000000000000000, 105.0000000000000142 ) ) ;
#275 = ADVANCED_FACE ( 'NONE', ( #58, #55 ), #174, .T. ) ;
#276 = DIRECTION ( 'NONE',  ( 1.000000000000000000, 0.000000000000000000, 0.000000000000000000 ) ) ;
#277 = EDGE_CURVE ( 'NONE', #239, #255, #69, .T. ) ;
#278 = AXIS2_PLACEMENT_3D ( 'NONE', #217, #50, #54 ) ;
#279 = CC_DESIGN_APPROVAL ( #176, ( #260 ) ) ;
#280 = ORIENTED_EDGE ( 'NONE', *, *, #277, .F. ) ;
#281 = DESIGN_CONTEXT ( 'detailed design', #17, 'design' ) ;
#282 = ORIENTED_EDGE ( 'NONE', *, *, #183, .F. ) ;
#283 = ORIENTED_EDGE ( 'NONE', *, *, #209, .F. ) ;
#284 = EDGE_CURVE ( 'NONE', #109, #306, #47, .T. ) ;
#285 = VERTEX_POINT ( 'NONE', #251 ) ;
#286 = DIRECTION ( 'NONE',  ( 0.000000000000000000, -1.000000000000000000, 0.000000000000000000 ) ) ;
#287 = APPROVAL_DATE_TIME ( #91, #141 ) ;
#288 = LINE ( 'NONE', #261, #42 ) ;
#289 = LOCAL_TIME ( 14, 27, 20.00000000000000000, #171 ) ;
#290 = ORIENTED_EDGE ( 'NONE', *, *, #187, .T. ) ;
#291 = PERSON_AND_ORGANIZATION_ROLE ( 'creator' ) ;
#292 = ORIENTED_EDGE ( 'NONE', *, *, #246, .T. ) ;
#293 = CARTESIAN_POINT ( 'NONE',  ( 0.000000000000000000, 0.000000000000000000, 0.000000000000000000 ) ) ;
#294 = CALENDAR_DATE ( 2022, 7, 7 ) ;
#295 = DIRECTION ( 'NONE',  ( 1.000000000000000000, 0.000000000000000000, -0.000000000000000000 ) ) ;
#296 = APPROVAL ( #125, 'NEURÈENÝ' ) ;
#297 = COORDINATED_UNIVERSAL_TIME_OFFSET ( 1, 0, .AHEAD. ) ;
#298 = AXIS2_PLACEMENT_3D ( 'NONE', #190, #5, #75 ) ;
#299 = AXIS2_PLACEMENT_3D ( 'NONE', #170, #8, #276 ) ;
#300 = CARTESIAN_POINT ( 'NONE',  ( -8.000000000000000000, 0.000000000000000000, 0.000000000000000000 ) ) ;
#301 = DIRECTION ( 'NONE',  ( 0.000000000000000000, 0.000000000000000000, 1.000000000000000000 ) ) ;
#302 = UNCERTAINTY_MEASURE_WITH_UNIT (LENGTH_MEASURE( 1.000000000000000082E-05 ), #120, 'distance_accuracy_value', 'NONE');
#303 = CIRCLE ( 'NONE', #252, 8.000000000000000000 ) ;
#304 = VERTEX_POINT ( 'NONE', #131 ) ;
#305 = ORIENTED_EDGE ( 'NONE', *, *, #39, .F. ) ;
#306 = VERTEX_POINT ( 'NONE', #225 ) ;
#307 = ORGANIZATION ( 'NEURÈENÝ', 'NEURÈENÝ', '' ) ;
ENDSEC;
END-ISO-10303-21;
