ISO-10303-21;
HEADER;
FILE_DESCRIPTION (( 'STEP AP203' ),
    '1' );
FILE_NAME ('43e2.STEP',
    '2022-07-07T12:30:47',
    ( '' ),
    ( '' ),
    'SwSTEP 2.0',
    'SolidWorks 2019',
    '' );
FILE_SCHEMA (( 'CONFIG_CONTROL_DESIGN' ));
ENDSEC;

DATA;
#1 = CARTESIAN_POINT ( 'NONE',  ( 0.000000000000000000, 0.000000000000000000, 5.199999999999982414 ) ) ;
#2 =( GEOMETRIC_REPRESENTATION_CONTEXT ( 3 ) GLOBAL_UNCERTAINTY_ASSIGNED_CONTEXT ( ( #127 ) ) GLOBAL_UNIT_ASSIGNED_CONTEXT ( ( #153, #175, #108 ) ) REPRESENTATION_CONTEXT ( 'NONE', 'WORKASPACE' ) );
#3 = CARTESIAN_POINT ( 'NONE',  ( 0.000000000000000000, 0.000000000000000000, 5.000000000000000000 ) ) ;
#4 = CARTESIAN_POINT ( 'NONE',  ( 4.250000000000000000, 5.204748896376250699E-16, 5.199999999999982414 ) ) ;
#5 = LINE ( 'NONE', #104, #23 ) ;
#6 = CIRCLE ( 'NONE', #41, 7.000000000000000000 ) ;
#7 = AXIS2_PLACEMENT_3D ( 'NONE', #201, #157, #72 ) ;
#8 = ORIENTED_EDGE ( 'NONE', *, *, #40, .F. ) ;
#9 = EDGE_CURVE ( 'NONE', #276, #20, #58, .T. ) ;
#10 = AXIS2_PLACEMENT_3D ( 'NONE', #124, #102, #187 ) ;
#11 = LOCAL_TIME ( 14, 30, 47.00000000000000000, #145 ) ;
#12 = ORIENTED_EDGE ( 'NONE', *, *, #303, .T. ) ;
#13 = VERTEX_POINT ( 'NONE', #165 ) ;
#14 = SHAPE_DEFINITION_REPRESENTATION ( #59, #159 ) ;
#15 = PERSON_AND_ORGANIZATION ( #66, #257 ) ;
#16 = LOCAL_TIME ( 14, 30, 47.00000000000000000, #231 ) ;
#17 = DATE_TIME_ROLE ( 'classification_date' ) ;
#18 = DIRECTION ( 'NONE',  ( -0.000000000000000000, -0.000000000000000000, -1.000000000000000000 ) ) ;
#19 = APPROVAL_ROLE ( '' ) ;
#20 = VERTEX_POINT ( 'NONE', #185 ) ;
#21 = APPROVAL_STATUS ( 'not_yet_approved' ) ;
#22 = DIRECTION ( 'NONE',  ( 1.000000000000000000, 0.000000000000000000, 0.000000000000000000 ) ) ;
#23 = VECTOR ( 'NONE', #57, 1000.000000000000000 ) ;
#24 = COORDINATED_UNIVERSAL_TIME_OFFSET ( 1, 0, .AHEAD. ) ;
#25 = CARTESIAN_POINT ( 'NONE',  ( 7.000000000000000000, 8.572527594031473190E-16, 5.000000000000000000 ) ) ;
#26 = DATE_AND_TIME ( #234, #11 ) ;
#27 = LINE ( 'NONE', #45, #35 ) ;
#28 = CLOSED_SHELL ( 'NONE', ( #158, #239, #174, #247, #195, #34, #236, #212, #222 ) ) ;
#29 = CYLINDRICAL_SURFACE ( 'NONE', #134, 7.000000000000000000 ) ;
#30 = DIRECTION ( 'NONE',  ( -1.000000000000000000, 0.000000000000000000, 0.000000000000000000 ) ) ;
#31 = DIRECTION ( 'NONE',  ( -0.000000000000000000, -0.000000000000000000, -1.000000000000000000 ) ) ;
#32 = AXIS2_PLACEMENT_3D ( 'NONE', #281, #278, #225 ) ;
#33 = FACE_OUTER_BOUND ( 'NONE', #267, .T. ) ;
#34 = ADVANCED_FACE ( 'NONE', ( #228 ), #232, .F. ) ;
#35 = VECTOR ( 'NONE', #18, 1000.000000000000000 ) ;
#36 = ORIENTED_EDGE ( 'NONE', *, *, #226, .F. ) ;
#37 = APPROVAL_PERSON_ORGANIZATION ( #164, #147, #47 ) ;
#38 = ORIENTED_EDGE ( 'NONE', *, *, #246, .T. ) ;
#39 = ORIENTED_EDGE ( 'NONE', *, *, #52, .T. ) ;
#40 = EDGE_CURVE ( 'NONE', #13, #46, #266, .T. ) ;
#41 = AXIS2_PLACEMENT_3D ( 'NONE', #167, #211, #264 ) ;
#42 = VERTEX_POINT ( 'NONE', #275 ) ;
#43 = EDGE_LOOP ( 'NONE', ( #116, #235, #39, #36 ) ) ;
#44 = APPROVAL_ROLE ( '' ) ;
#45 = CARTESIAN_POINT ( 'NONE',  ( 4.250000000000000000, 5.204748896376250699E-16, 405.0000000000000000 ) ) ;
#46 = VERTEX_POINT ( 'NONE', #182 ) ;
#47 = APPROVAL_ROLE ( '' ) ;
#48 = CARTESIAN_POINT ( 'NONE',  ( 0.000000000000000000, 0.000000000000000000, 0.000000000000000000 ) ) ;
#49 = CARTESIAN_POINT ( 'NONE',  ( 0.000000000000000000, 0.000000000000000000, 405.0000000000000000 ) ) ;
#50 = CIRCLE ( 'NONE', #155, 7.000000000000000000 ) ;
#51 = FACE_OUTER_BOUND ( 'NONE', #74, .T. ) ;
#52 = EDGE_CURVE ( 'NONE', #276, #133, #131, .T. ) ;
#53 = CC_DESIGN_APPROVAL ( #147, ( #123 ) ) ;
#54 = CC_DESIGN_PERSON_AND_ORGANIZATION_ASSIGNMENT ( #96, #296, ( #60 ) ) ;
#55 = DIRECTION ( 'NONE',  ( 1.000000000000000000, 0.000000000000000000, -0.000000000000000000 ) ) ;
#56 = APPLICATION_CONTEXT ( 'configuration controlled 3d designs of mechanical parts and assemblies' ) ;
#57 = DIRECTION ( 'NONE',  ( -0.000000000000000000, -0.000000000000000000, -1.000000000000000000 ) ) ;
#58 = CIRCLE ( 'NONE', #221, 4.250000000000000000 ) ;
#59 = PRODUCT_DEFINITION_SHAPE ( 'NONE', 'NONE',  #197 ) ;
#60 = PRODUCT_DEFINITION_FORMATION_WITH_SPECIFIED_SOURCE ( 'LIBOVOLNÝ', '', #233, .NOT_KNOWN. ) ;
#61 = ORIENTED_EDGE ( 'NONE', *, *, #192, .T. ) ;
#62 = ORIENTED_EDGE ( 'NONE', *, *, #306, .F. ) ;
#63 = CIRCLE ( 'NONE', #190, 4.450000000000000178 ) ;
#64 = ORIENTED_EDGE ( 'NONE', *, *, #9, .T. ) ;
#65 = EDGE_CURVE ( 'NONE', #20, #276, #202, .T. ) ;
#66 = PERSON ( 'NEURÈENÝ', 'NEURÈENÝ', 'NEURÈENÝ', ('NEURÈENÝ'), ('NEURÈENÝ'), ('NEURÈENÝ') ) ;
#67 = DATE_AND_TIME ( #120, #69 ) ;
#68 = ORIENTED_EDGE ( 'NONE', *, *, #109, .T. ) ;
#69 = LOCAL_TIME ( 14, 30, 47.00000000000000000, #24 ) ;
#70 = DIRECTION ( 'NONE',  ( 1.000000000000000000, 0.000000000000000000, 0.000000000000000000 ) ) ;
#71 = ORIENTED_EDGE ( 'NONE', *, *, #52, .F. ) ;
#72 = DIRECTION ( 'NONE',  ( 1.000000000000000000, 0.000000000000000000, -0.000000000000000000 ) ) ;
#73 = PERSON_AND_ORGANIZATION_ROLE ( 'classification_officer' ) ;
#74 = EDGE_LOOP ( 'NONE', ( #68, #196 ) ) ;
#75 = CALENDAR_DATE ( 2022, 7, 7 ) ;
#76 = DIRECTION ( 'NONE',  ( 0.000000000000000000, 0.000000000000000000, 1.000000000000000000 ) ) ;
#77 = DIRECTION ( 'NONE',  ( -0.000000000000000000, -0.000000000000000000, -1.000000000000000000 ) ) ;
#78 = EDGE_CURVE ( 'NONE', #46, #13, #99, .T. ) ;
#79 = DIRECTION ( 'NONE',  ( -0.000000000000000000, -0.000000000000000000, -1.000000000000000000 ) ) ;
#80 = CC_DESIGN_DATE_AND_TIME_ASSIGNMENT ( #114, #299, ( #197 ) ) ;
#81 = CYLINDRICAL_SURFACE ( 'NONE', #82, 4.250000000000000000 ) ;
#82 = AXIS2_PLACEMENT_3D ( 'NONE', #49, #79, #288 ) ;
#83 = LINE ( 'NONE', #125, #117 ) ;
#84 = DIRECTION ( 'NONE',  ( -1.000000000000000000, 0.000000000000000000, 0.000000000000000000 ) ) ;
#85 = ORIENTED_EDGE ( 'NONE', *, *, #268, .T. ) ;
#86 = LOCAL_TIME ( 14, 30, 47.00000000000000000, #141 ) ;
#87 = MANIFOLD_SOLID_BREP ( 'Zaoblit1', #28 ) ;
#88 = EDGE_LOOP ( 'NONE', ( #8, #270 ) ) ;
#89 = AXIS2_PLACEMENT_3D ( 'NONE', #126, #128, #215 ) ;
#90 = APPLICATION_PROTOCOL_DEFINITION ( 'international standard', 'config_control_design', 1994, #56 ) ;
#91 = CARTESIAN_POINT ( 'NONE',  ( 0.000000000000000000, 0.000000000000000000, 5.199999999999982414 ) ) ;
#92 = EDGE_CURVE ( 'NONE', #245, #46, #95, .T. ) ;
#93 = CARTESIAN_POINT ( 'NONE',  ( 0.000000000000000000, 0.000000000000000000, 5.199999999999982414 ) ) ;
#94 = AXIS2_PLACEMENT_3D ( 'NONE', #1, #191, #103 ) ;
#95 = LINE ( 'NONE', #25, #249 ) ;
#96 = PERSON_AND_ORGANIZATION ( #66, #257 ) ;
#97 = DIRECTION ( 'NONE',  ( 1.000000000000000000, 0.000000000000000000, 0.000000000000000000 ) ) ;
#98 = CARTESIAN_POINT ( 'NONE',  ( 0.000000000000000000, 0.000000000000000000, 5.000000000000000000 ) ) ;
#99 = CIRCLE ( 'NONE', #179, 7.000000000000000000 ) ;
#100 = FACE_OUTER_BOUND ( 'NONE', #130, .T. ) ;
#101 = CIRCLE ( 'NONE', #291, 0.1999999999999996503 ) ;
#102 = DIRECTION ( 'NONE',  ( 0.000000000000000000, 0.000000000000000000, 1.000000000000000000 ) ) ;
#103 = DIRECTION ( 'NONE',  ( 1.000000000000000000, 0.000000000000000000, 0.000000000000000000 ) ) ;
#104 = CARTESIAN_POINT ( 'NONE',  ( -4.250000000000000000, 0.000000000000000000, 405.0000000000000000 ) ) ;
#105 = FACE_BOUND ( 'NONE', #176, .T. ) ;
#106 = APPROVAL ( #21, 'NEURÈENÝ' ) ;
#107 = EDGE_CURVE ( 'NONE', #250, #276, #27, .T. ) ;
#108 =( NAMED_UNIT ( * ) SI_UNIT ( $, .STERADIAN. ) SOLID_ANGLE_UNIT ( ) );
#109 = EDGE_CURVE ( 'NONE', #42, #245, #50, .T. ) ;
#110 = ORIENTED_EDGE ( 'NONE', *, *, #268, .F. ) ;
#111 = ORIENTED_EDGE ( 'NONE', *, *, #65, .F. ) ;
#112 = VERTEX_POINT ( 'NONE', #207 ) ;
#113 = CC_DESIGN_APPROVAL ( #106, ( #197 ) ) ;
#114 = DATE_AND_TIME ( #203, #16 ) ;
#115 = DIRECTION ( 'NONE',  ( 0.000000000000000000, 0.000000000000000000, 1.000000000000000000 ) ) ;
#116 = ORIENTED_EDGE ( 'NONE', *, *, #192, .F. ) ;
#117 = VECTOR ( 'NONE', #214, 1000.000000000000000 ) ;
#118 = PERSON_AND_ORGANIZATION_ROLE ( 'creator' ) ;
#119 = DIRECTION ( 'NONE',  ( 0.000000000000000000, 0.000000000000000000, 1.000000000000000000 ) ) ;
#120 = CALENDAR_DATE ( 2022, 7, 7 ) ;
#121 = ORIENTED_EDGE ( 'NONE', *, *, #92, .F. ) ;
#122 = CARTESIAN_POINT ( 'NONE',  ( -4.450000000000000178, 5.449678256205721784E-16, 5.199999999999982414 ) ) ;
#123 = SECURITY_CLASSIFICATION ( '', '', #280 ) ;
#124 = CARTESIAN_POINT ( 'NONE',  ( 0.000000000000000000, 0.000000000000000000, 5.000000000000000000 ) ) ;
#125 = CARTESIAN_POINT ( 'NONE',  ( -7.000000000000000000, 0.000000000000000000, 5.000000000000000000 ) ) ;
#126 = CARTESIAN_POINT ( 'NONE',  ( 0.000000000000000000, 0.000000000000000000, 405.0000000000000000 ) ) ;
#127 = UNCERTAINTY_MEASURE_WITH_UNIT (LENGTH_MEASURE( 1.000000000000000082E-05 ), #153, 'distance_accuracy_value', 'NONE');
#128 = DIRECTION ( 'NONE',  ( 0.000000000000000000, 0.000000000000000000, 1.000000000000000000 ) ) ;
#129 = APPROVAL_PERSON_ORGANIZATION ( #143, #106, #19 ) ;
#130 = EDGE_LOOP ( 'NONE', ( #139, #144, #64, #62 ) ) ;
#131 = CIRCLE ( 'NONE', #32, 0.1999999999999996503 ) ;
#132 = DIRECTION ( 'NONE',  ( 0.000000000000000000, 0.000000000000000000, 1.000000000000000000 ) ) ;
#133 = VERTEX_POINT ( 'NONE', #146 ) ;
#134 = AXIS2_PLACEMENT_3D ( 'NONE', #148, #77, #30 ) ;
#135 = PERSON_AND_ORGANIZATION ( #66, #257 ) ;
#136 = DIRECTION ( 'NONE',  ( 0.000000000000000000, 0.000000000000000000, 1.000000000000000000 ) ) ;
#137 = APPROVAL_DATE_TIME ( #26, #147 ) ;
#138 = PERSON_AND_ORGANIZATION_ROLE ( 'creator' ) ;
#139 = ORIENTED_EDGE ( 'NONE', *, *, #156, .F. ) ;
#140 = CC_DESIGN_PERSON_AND_ORGANIZATION_ASSIGNMENT ( #135, #227, ( #233 ) ) ;
#141 = COORDINATED_UNIVERSAL_TIME_OFFSET ( 1, 0, .AHEAD. ) ;
#142 = DIRECTION ( 'NONE',  ( 1.000000000000000000, 0.000000000000000000, 0.000000000000000000 ) ) ;
#143 = PERSON_AND_ORGANIZATION ( #66, #257 ) ;
#144 = ORIENTED_EDGE ( 'NONE', *, *, #107, .T. ) ;
#145 = COORDINATED_UNIVERSAL_TIME_OFFSET ( 1, 0, .AHEAD. ) ;
#146 = CARTESIAN_POINT ( 'NONE',  ( 4.450000000000000178, 0.000000000000000000, 4.999999999999991118 ) ) ;
#147 = APPROVAL ( #258, 'NEURÈENÝ' ) ;
#148 = CARTESIAN_POINT ( 'NONE',  ( 0.000000000000000000, 0.000000000000000000, 5.000000000000000000 ) ) ;
#149 = AXIS2_PLACEMENT_3D ( 'NONE', #256, #136, #22 ) ;
#150 = CARTESIAN_POINT ( 'NONE',  ( 0.000000000000000000, 0.000000000000000000, 405.0000000000000000 ) ) ;
#151 = DIRECTION ( 'NONE',  ( -0.000000000000000000, -0.000000000000000000, -1.000000000000000000 ) ) ;
#152 = CARTESIAN_POINT ( 'NONE',  ( 0.000000000000000000, 0.000000000000000000, 5.000000000000000000 ) ) ;
#153 =( LENGTH_UNIT ( ) NAMED_UNIT ( * ) SI_UNIT ( .MILLI., .METRE. ) );
#154 = ORIENTED_EDGE ( 'NONE', *, *, #65, .T. ) ;
#155 = AXIS2_PLACEMENT_3D ( 'NONE', #98, #181, #283 ) ;
#156 = EDGE_CURVE ( 'NONE', #250, #307, #194, .T. ) ;
#157 = DIRECTION ( 'NONE',  ( 0.000000000000000000, 0.000000000000000000, 1.000000000000000000 ) ) ;
#158 = ADVANCED_FACE ( 'NONE', ( #259 ), #180, .F. ) ;
#159 = ADVANCED_BREP_SHAPE_REPRESENTATION ( '43e2', ( #87, #172 ), #2 ) ;
#160 = EDGE_LOOP ( 'NONE', ( #121, #177, #85, #254 ) ) ;
#161 = DIRECTION ( 'NONE',  ( -0.000000000000000000, -0.000000000000000000, -1.000000000000000000 ) ) ;
#162 = DIRECTION ( 'NONE',  ( 1.000000000000000000, 0.000000000000000000, 0.000000000000000000 ) ) ;
#163 = AXIS2_PLACEMENT_3D ( 'NONE', #3, #151, #171 ) ;
#164 = PERSON_AND_ORGANIZATION ( #66, #257 ) ;
#165 = CARTESIAN_POINT ( 'NONE',  ( -7.000000000000000000, 0.000000000000000000, 0.000000000000000000 ) ) ;
#166 = CARTESIAN_POINT ( 'NONE',  ( 4.250000000000000000, 5.204748896376250699E-16, 405.0000000000000000 ) ) ;
#167 = CARTESIAN_POINT ( 'NONE',  ( 0.000000000000000000, 0.000000000000000000, 5.000000000000000000 ) ) ;
#168 = AXIS2_PLACEMENT_3D ( 'NONE', #93, #115, #142 ) ;
#169 = CARTESIAN_POINT ( 'NONE',  ( 7.000000000000000000, 8.572527594031473190E-16, 5.000000000000000000 ) ) ;
#170 = FACE_OUTER_BOUND ( 'NONE', #43, .T. ) ;
#171 = DIRECTION ( 'NONE',  ( 1.000000000000000000, 0.000000000000000000, 0.000000000000000000 ) ) ;
#172 = AXIS2_PLACEMENT_3D ( 'NONE', #274, #132, #70 ) ;
#173 = EDGE_LOOP ( 'NONE', ( #12, #184 ) ) ;
#174 = ADVANCED_FACE ( 'NONE', ( #297 ), #262, .T. ) ;
#175 =( NAMED_UNIT ( * ) PLANE_ANGLE_UNIT ( ) SI_UNIT ( $, .RADIAN. ) );
#176 = EDGE_LOOP ( 'NONE', ( #38, #298 ) ) ;
#177 = ORIENTED_EDGE ( 'NONE', *, *, #109, .F. ) ;
#178 = DIRECTION ( 'NONE',  ( 0.000000000000000000, 0.000000000000000000, 1.000000000000000000 ) ) ;
#179 = AXIS2_PLACEMENT_3D ( 'NONE', #48, #119, #162 ) ;
#180 = TOROIDAL_SURFACE ( 'NONE', #255, 4.450000000000000178, 0.2000000000000000111 ) ;
#181 = DIRECTION ( 'NONE',  ( 0.000000000000000000, 0.000000000000000000, 1.000000000000000000 ) ) ;
#182 = CARTESIAN_POINT ( 'NONE',  ( 7.000000000000000000, 8.572527594031473190E-16, 0.000000000000000000 ) ) ;
#183 = PERSON_AND_ORGANIZATION ( #66, #257 ) ;
#184 = ORIENTED_EDGE ( 'NONE', *, *, #156, .T. ) ;
#185 = CARTESIAN_POINT ( 'NONE',  ( -4.250000000000000000, 0.000000000000000000, 5.199999999999982414 ) ) ;
#186 = CIRCLE ( 'NONE', #89, 4.250000000000000000 ) ;
#187 = DIRECTION ( 'NONE',  ( 1.000000000000000000, 0.000000000000000000, -0.000000000000000000 ) ) ;
#188 = APPLICATION_CONTEXT ( 'configuration controlled 3d designs of mechanical parts and assemblies' ) ;
#189 = CARTESIAN_POINT ( 'NONE',  ( 0.000000000000000000, 0.000000000000000000, 5.000000000000000000 ) ) ;
#190 = AXIS2_PLACEMENT_3D ( 'NONE', #189, #210, #238 ) ;
#191 = DIRECTION ( 'NONE',  ( 0.000000000000000000, 0.000000000000000000, 1.000000000000000000 ) ) ;
#192 = EDGE_CURVE ( 'NONE', #20, #112, #101, .T. ) ;
#193 = PLANE ( 'NONE',  #284 ) ;
#194 = CIRCLE ( 'NONE', #217, 4.250000000000000000 ) ;
#195 = ADVANCED_FACE ( 'NONE', ( #105, #51 ), #287, .T. ) ;
#196 = ORIENTED_EDGE ( 'NONE', *, *, #260, .T. ) ;
#197 = PRODUCT_DEFINITION ( 'NEZNÁMÝ', '', #60, #279 ) ;
#198 = EDGE_LOOP ( 'NONE', ( #111, #61, #269, #71 ) ) ;
#199 = LOCAL_TIME ( 14, 30, 47.00000000000000000, #200 ) ;
#200 = COORDINATED_UNIVERSAL_TIME_OFFSET ( 1, 0, .AHEAD. ) ;
#201 = CARTESIAN_POINT ( 'NONE',  ( 0.000000000000000000, 0.000000000000000000, 0.000000000000000000 ) ) ;
#202 = CIRCLE ( 'NONE', #168, 4.250000000000000000 ) ;
#203 = CALENDAR_DATE ( 2022, 7, 7 ) ;
#204 = DIRECTION ( 'NONE',  ( 1.000000000000000000, 0.000000000000000000, 0.000000000000000000 ) ) ;
#205 = AXIS2_PLACEMENT_3D ( 'NONE', #242, #31, #286 ) ;
#206 = DATE_AND_TIME ( #282, #86 ) ;
#207 = CARTESIAN_POINT ( 'NONE',  ( -4.450000000000000178, 5.449678256205721784E-16, 4.999999999999991118 ) ) ;
#208 = MECHANICAL_CONTEXT ( 'NONE', #188, 'mechanical' ) ;
#209 = CARTESIAN_POINT ( 'NONE',  ( 0.000000000000000000, 0.000000000000000000, 5.199999999999982414 ) ) ;
#210 = DIRECTION ( 'NONE',  ( -0.000000000000000000, -0.000000000000000000, -1.000000000000000000 ) ) ;
#211 = DIRECTION ( 'NONE',  ( 0.000000000000000000, 0.000000000000000000, 1.000000000000000000 ) ) ;
#212 = ADVANCED_FACE ( 'NONE', ( #289 ), #193, .T. ) ;
#213 = CC_DESIGN_PERSON_AND_ORGANIZATION_ASSIGNMENT ( #229, #118, ( #60 ) ) ;
#214 = DIRECTION ( 'NONE',  ( -0.000000000000000000, -0.000000000000000000, -1.000000000000000000 ) ) ;
#215 = DIRECTION ( 'NONE',  ( 1.000000000000000000, 0.000000000000000000, 0.000000000000000000 ) ) ;
#216 = CARTESIAN_POINT ( 'NONE',  ( -4.250000000000000000, 0.000000000000000000, 405.0000000000000000 ) ) ;
#217 = AXIS2_PLACEMENT_3D ( 'NONE', #304, #76, #97 ) ;
#218 = TOROIDAL_SURFACE ( 'NONE', #94, 4.450000000000000178, 0.2000000000000000111 ) ;
#219 = CC_DESIGN_SECURITY_CLASSIFICATION ( #123, ( #60 ) ) ;
#220 = ORIENTED_EDGE ( 'NONE', *, *, #260, .F. ) ;
#221 = AXIS2_PLACEMENT_3D ( 'NONE', #209, #301, #204 ) ;
#222 = ADVANCED_FACE ( 'NONE', ( #170 ), #218, .F. ) ;
#223 = DATE_AND_TIME ( #75, #199 ) ;
#224 = APPROVAL_PERSON_ORGANIZATION ( #277, #273, #44 ) ;
#225 = DIRECTION ( 'NONE',  ( 0.000000000000000000, 0.000000000000000000, -1.000000000000000000 ) ) ;
#226 = EDGE_CURVE ( 'NONE', #112, #133, #63, .T. ) ;
#227 = PERSON_AND_ORGANIZATION_ROLE ( 'design_owner' ) ;
#228 = FACE_OUTER_BOUND ( 'NONE', #88, .T. ) ;
#229 = PERSON_AND_ORGANIZATION ( #66, #257 ) ;
#230 = ORIENTED_EDGE ( 'NONE', *, *, #303, .F. ) ;
#231 = COORDINATED_UNIVERSAL_TIME_OFFSET ( 1, 0, .AHEAD. ) ;
#232 = PLANE ( 'NONE',  #7 ) ;
#233 = PRODUCT ( '43e2', '43e2', '', ( #208 ) ) ;
#234 = CALENDAR_DATE ( 2022, 7, 7 ) ;
#235 = ORIENTED_EDGE ( 'NONE', *, *, #9, .F. ) ;
#236 = ADVANCED_FACE ( 'NONE', ( #33 ), #237, .T. ) ;
#237 = CYLINDRICAL_SURFACE ( 'NONE', #205, 4.250000000000000000 ) ;
#238 = DIRECTION ( 'NONE',  ( 1.000000000000000000, 0.000000000000000000, 0.000000000000000000 ) ) ;
#239 = ADVANCED_FACE ( 'NONE', ( #100 ), #81, .T. ) ;
#240 = FACE_OUTER_BOUND ( 'NONE', #160, .T. ) ;
#241 = DIRECTION ( 'NONE',  ( 0.000000000000000000, 0.000000000000000000, 1.000000000000000000 ) ) ;
#242 = CARTESIAN_POINT ( 'NONE',  ( 0.000000000000000000, 0.000000000000000000, 405.0000000000000000 ) ) ;
#243 = APPLICATION_PROTOCOL_DEFINITION ( 'international standard', 'config_control_design', 1994, #188 ) ;
#244 = PRODUCT_RELATED_PRODUCT_CATEGORY ( 'detail', '', ( #233 ) ) ;
#245 = VERTEX_POINT ( 'NONE', #169 ) ;
#246 = EDGE_CURVE ( 'NONE', #133, #112, #271, .T. ) ;
#247 = ADVANCED_FACE ( 'NONE', ( #240 ), #29, .T. ) ;
#248 = ORIENTED_EDGE ( 'NONE', *, *, #92, .T. ) ;
#249 = VECTOR ( 'NONE', #161, 1000.000000000000000 ) ;
#250 = VERTEX_POINT ( 'NONE', #166 ) ;
#251 = CC_DESIGN_APPROVAL ( #273, ( #60 ) ) ;
#252 = ORIENTED_EDGE ( 'NONE', *, *, #78, .T. ) ;
#253 = APPROVAL_STATUS ( 'not_yet_approved' ) ;
#254 = ORIENTED_EDGE ( 'NONE', *, *, #40, .T. ) ;
#255 = AXIS2_PLACEMENT_3D ( 'NONE', #91, #178, #285 ) ;
#256 = CARTESIAN_POINT ( 'NONE',  ( 0.000000000000000000, 0.000000000000000000, 0.000000000000000000 ) ) ;
#257 = ORGANIZATION ( 'NEURÈENÝ', 'NEURÈENÝ', '' ) ;
#258 = APPROVAL_STATUS ( 'not_yet_approved' ) ;
#259 = FACE_OUTER_BOUND ( 'NONE', #198, .T. ) ;
#260 = EDGE_CURVE ( 'NONE', #245, #42, #6, .T. ) ;
#261 = DIRECTION ( 'NONE',  ( 1.224646799147353207E-16, 1.000000000000000000, -0.000000000000000000 ) ) ;
#262 = CYLINDRICAL_SURFACE ( 'NONE', #292, 7.000000000000000000 ) ;
#263 = DIRECTION ( 'NONE',  ( -0.000000000000000000, -0.000000000000000000, -1.000000000000000000 ) ) ;
#264 = DIRECTION ( 'NONE',  ( 1.000000000000000000, 0.000000000000000000, 0.000000000000000000 ) ) ;
#265 = DIRECTION ( 'NONE',  ( -1.000000000000000000, 1.224646799147353454E-16, 0.000000000000000000 ) ) ;
#266 = CIRCLE ( 'NONE', #149, 7.000000000000000000 ) ;
#267 = EDGE_LOOP ( 'NONE', ( #294, #230, #290, #154 ) ) ;
#268 = EDGE_CURVE ( 'NONE', #42, #13, #83, .T. ) ;
#269 = ORIENTED_EDGE ( 'NONE', *, *, #246, .F. ) ;
#270 = ORIENTED_EDGE ( 'NONE', *, *, #78, .F. ) ;
#271 = CIRCLE ( 'NONE', #163, 4.450000000000000178 ) ;
#272 = EDGE_LOOP ( 'NONE', ( #220, #248, #252, #110 ) ) ;
#273 = APPROVAL ( #253, 'NEURÈENÝ' ) ;
#274 = CARTESIAN_POINT ( 'NONE',  ( 0.000000000000000000, 0.000000000000000000, 0.000000000000000000 ) ) ;
#275 = CARTESIAN_POINT ( 'NONE',  ( -7.000000000000000000, 0.000000000000000000, 5.000000000000000000 ) ) ;
#276 = VERTEX_POINT ( 'NONE', #4 ) ;
#277 = PERSON_AND_ORGANIZATION ( #66, #257 ) ;
#278 = DIRECTION ( 'NONE',  ( 0.000000000000000000, -1.000000000000000000, 0.000000000000000000 ) ) ;
#279 = DESIGN_CONTEXT ( 'detailed design', #56, 'design' ) ;
#280 = SECURITY_CLASSIFICATION_LEVEL ( 'unclassified' ) ;
#281 = CARTESIAN_POINT ( 'NONE',  ( 4.450000000000000178, 0.000000000000000000, 5.199999999999982414 ) ) ;
#282 = CALENDAR_DATE ( 2022, 7, 7 ) ;
#283 = DIRECTION ( 'NONE',  ( 1.000000000000000000, 0.000000000000000000, 0.000000000000000000 ) ) ;
#284 = AXIS2_PLACEMENT_3D ( 'NONE', #150, #241, #55 ) ;
#285 = DIRECTION ( 'NONE',  ( 1.000000000000000000, 0.000000000000000000, 0.000000000000000000 ) ) ;
#286 = DIRECTION ( 'NONE',  ( -1.000000000000000000, 0.000000000000000000, 0.000000000000000000 ) ) ;
#287 = PLANE ( 'NONE',  #10 ) ;
#288 = DIRECTION ( 'NONE',  ( -1.000000000000000000, 0.000000000000000000, 0.000000000000000000 ) ) ;
#289 = FACE_OUTER_BOUND ( 'NONE', #173, .T. ) ;
#290 = ORIENTED_EDGE ( 'NONE', *, *, #306, .T. ) ;
#291 = AXIS2_PLACEMENT_3D ( 'NONE', #122, #261, #265 ) ;
#292 = AXIS2_PLACEMENT_3D ( 'NONE', #152, #263, #84 ) ;
#293 = CC_DESIGN_PERSON_AND_ORGANIZATION_ASSIGNMENT ( #15, #138, ( #197 ) ) ;
#294 = ORIENTED_EDGE ( 'NONE', *, *, #107, .F. ) ;
#295 = CC_DESIGN_DATE_AND_TIME_ASSIGNMENT ( #67, #17, ( #123 ) ) ;
#296 = PERSON_AND_ORGANIZATION_ROLE ( 'design_supplier' ) ;
#297 = FACE_OUTER_BOUND ( 'NONE', #272, .T. ) ;
#298 = ORIENTED_EDGE ( 'NONE', *, *, #226, .T. ) ;
#299 = DATE_TIME_ROLE ( 'creation_date' ) ;
#300 = CC_DESIGN_PERSON_AND_ORGANIZATION_ASSIGNMENT ( #183, #73, ( #123 ) ) ;
#301 = DIRECTION ( 'NONE',  ( 0.000000000000000000, 0.000000000000000000, 1.000000000000000000 ) ) ;
#302 = APPROVAL_DATE_TIME ( #206, #273 ) ;
#303 = EDGE_CURVE ( 'NONE', #307, #250, #186, .T. ) ;
#304 = CARTESIAN_POINT ( 'NONE',  ( 0.000000000000000000, 0.000000000000000000, 405.0000000000000000 ) ) ;
#305 = APPROVAL_DATE_TIME ( #223, #106 ) ;
#306 = EDGE_CURVE ( 'NONE', #307, #20, #5, .T. ) ;
#307 = VERTEX_POINT ( 'NONE', #216 ) ;
ENDSEC;
END-ISO-10303-21;
