ISO-10303-21;
HEADER;
FILE_DESCRIPTION (( 'STEP AP203' ),
    '1' );
FILE_NAME ('ec64.STEP',
    '2022-07-07T12:44:13',
    ( '' ),
    ( '' ),
    'SwSTEP 2.0',
    'SolidWorks 2019',
    '' );
FILE_SCHEMA (( 'CONFIG_CONTROL_DESIGN' ));
ENDSEC;

DATA;
#1 = CALENDAR_DATE ( 2022, 7, 7 ) ;
#2 = CARTESIAN_POINT ( 'NONE',  ( 0.000000000000000000, 0.000000000000000000, 3.199999999999994404 ) ) ;
#3 = CC_DESIGN_SECURITY_CLASSIFICATION ( #305, ( #110 ) ) ;
#4 = ORIENTED_EDGE ( 'NONE', *, *, #289, .T. ) ;
#5 = CARTESIAN_POINT ( 'NONE',  ( 0.000000000000000000, 0.000000000000000000, 3.199999999999994404 ) ) ;
#6 = ORIENTED_EDGE ( 'NONE', *, *, #82, .T. ) ;
#7 = PLANE ( 'NONE',  #228 ) ;
#8 = CYLINDRICAL_SURFACE ( 'NONE', #232, 2.750000000000000000 ) ;
#9 = VERTEX_POINT ( 'NONE', #26 ) ;
#10 = LOCAL_TIME ( 14, 44, 13.00000000000000000, #283 ) ;
#11 = CARTESIAN_POINT ( 'NONE',  ( 0.000000000000000000, 0.000000000000000000, 3.000000000000000000 ) ) ;
#12 = CARTESIAN_POINT ( 'NONE',  ( 0.000000000000000000, 0.000000000000000000, 3.199999999999994404 ) ) ;
#13 = CIRCLE ( 'NONE', #176, 5.000000000000000000 ) ;
#14 = CARTESIAN_POINT ( 'NONE',  ( -2.949999999999999734, 3.612708057484692097E-16, 3.199999999999994404 ) ) ;
#15 = ORIENTED_EDGE ( 'NONE', *, *, #177, .T. ) ;
#16 = FACE_OUTER_BOUND ( 'NONE', #197, .T. ) ;
#17 = UNCERTAINTY_MEASURE_WITH_UNIT (LENGTH_MEASURE( 1.000000000000000082E-05 ), #77, 'distance_accuracy_value', 'NONE');
#18 = EDGE_CURVE ( 'NONE', #55, #78, #291, .T. ) ;
#19 = CIRCLE ( 'NONE', #185, 2.750000000000000000 ) ;
#20 = APPROVAL_DATE_TIME ( #240, #295 ) ;
#21 = AXIS2_PLACEMENT_3D ( 'NONE', #268, #250, #70 ) ;
#22 = APPROVAL_ROLE ( '' ) ;
#23 = AXIS2_PLACEMENT_3D ( 'NONE', #225, #222, #79 ) ;
#24 = CARTESIAN_POINT ( 'NONE',  ( -2.750000000000000000, 0.000000000000000000, 3.199999999999994404 ) ) ;
#25 = ADVANCED_FACE ( 'NONE', ( #94 ), #122, .T. ) ;
#26 = CARTESIAN_POINT ( 'NONE',  ( 5.000000000000000000, 6.123233995736766282E-16, 0.000000000000000000 ) ) ;
#27 = VERTEX_POINT ( 'NONE', #273 ) ;
#28 = DIRECTION ( 'NONE',  ( 0.000000000000000000, 0.000000000000000000, 1.000000000000000000 ) ) ;
#29 = CARTESIAN_POINT ( 'NONE',  ( 0.000000000000000000, 0.000000000000000000, 0.000000000000000000 ) ) ;
#30 = FACE_OUTER_BOUND ( 'NONE', #248, .T. ) ;
#31 = ORIENTED_EDGE ( 'NONE', *, *, #82, .F. ) ;
#32 = LOCAL_TIME ( 14, 44, 13.00000000000000000, #235 ) ;
#33 = VERTEX_POINT ( 'NONE', #244 ) ;
#34 = CARTESIAN_POINT ( 'NONE',  ( 0.000000000000000000, 0.000000000000000000, 103.0000000000000142 ) ) ;
#35 = DIRECTION ( 'NONE',  ( 0.000000000000000000, 0.000000000000000000, 1.000000000000000000 ) ) ;
#36 = ADVANCED_FACE ( 'NONE', ( #243 ), #239, .F. ) ;
#37 = AXIS2_PLACEMENT_3D ( 'NONE', #210, #213, #267 ) ;
#38 = CC_DESIGN_DATE_AND_TIME_ASSIGNMENT ( #40, #68, ( #265 ) ) ;
#39 = EDGE_CURVE ( 'NONE', #292, #276, #13, .T. ) ;
#40 = DATE_AND_TIME ( #116, #201 ) ;
#41 = VECTOR ( 'NONE', #71, 1000.000000000000000 ) ;
#42 = PERSON_AND_ORGANIZATION ( #203, #158 ) ;
#43 = DATE_AND_TIME ( #263, #32 ) ;
#44 = APPLICATION_PROTOCOL_DEFINITION ( 'international standard', 'config_control_design', 1994, #220 ) ;
#45 = CIRCLE ( 'NONE', #202, 2.750000000000000000 ) ;
#46 = CIRCLE ( 'NONE', #23, 2.949999999999999734 ) ;
#47 = PERSON_AND_ORGANIZATION ( #203, #158 ) ;
#48 = DIRECTION ( 'NONE',  ( 1.000000000000000000, 0.000000000000000000, 0.000000000000000000 ) ) ;
#49 = CARTESIAN_POINT ( 'NONE',  ( -2.750000000000000000, 0.000000000000000000, 103.0000000000000142 ) ) ;
#50 = DIRECTION ( 'NONE',  ( -0.000000000000000000, -0.000000000000000000, -1.000000000000000000 ) ) ;
#51 = ORIENTED_EDGE ( 'NONE', *, *, #236, .F. ) ;
#52 = CARTESIAN_POINT ( 'NONE',  ( 0.000000000000000000, 0.000000000000000000, 103.0000000000000142 ) ) ;
#53 = DIRECTION ( 'NONE',  ( 0.000000000000000000, 0.000000000000000000, 1.000000000000000000 ) ) ;
#54 = CIRCLE ( 'NONE', #234, 5.000000000000000000 ) ;
#55 = VERTEX_POINT ( 'NONE', #49 ) ;
#56 = DIRECTION ( 'NONE',  ( 0.000000000000000000, -1.000000000000000000, 0.000000000000000000 ) ) ;
#57 = ORIENTED_EDGE ( 'NONE', *, *, #115, .T. ) ;
#58 = FACE_OUTER_BOUND ( 'NONE', #288, .T. ) ;
#59 = ORIENTED_EDGE ( 'NONE', *, *, #88, .F. ) ;
#60 = PLANE ( 'NONE',  #301 ) ;
#61 = AXIS2_PLACEMENT_3D ( 'NONE', #11, #299, #175 ) ;
#62 = EDGE_CURVE ( 'NONE', #55, #33, #45, .T. ) ;
#63 = CC_DESIGN_APPROVAL ( #221, ( #305 ) ) ;
#64 = CC_DESIGN_PERSON_AND_ORGANIZATION_ASSIGNMENT ( #42, #281, ( #303 ) ) ;
#65 = PERSON_AND_ORGANIZATION ( #203, #158 ) ;
#66 = PERSON_AND_ORGANIZATION_ROLE ( 'classification_officer' ) ;
#67 = CARTESIAN_POINT ( 'NONE',  ( 0.000000000000000000, 0.000000000000000000, 0.000000000000000000 ) ) ;
#68 = DATE_TIME_ROLE ( 'creation_date' ) ;
#69 = APPROVAL_DATE_TIME ( #91, #221 ) ;
#70 = DIRECTION ( 'NONE',  ( 1.000000000000000000, 0.000000000000000000, -0.000000000000000000 ) ) ;
#71 = DIRECTION ( 'NONE',  ( -0.000000000000000000, -0.000000000000000000, -1.000000000000000000 ) ) ;
#72 = CARTESIAN_POINT ( 'NONE',  ( 0.000000000000000000, 0.000000000000000000, 3.000000000000000000 ) ) ;
#73 = EDGE_LOOP ( 'NONE', ( #190, #59, #100, #251 ) ) ;
#74 = DIRECTION ( 'NONE',  ( 1.000000000000000000, 0.000000000000000000, 0.000000000000000000 ) ) ;
#75 = DIRECTION ( 'NONE',  ( -0.000000000000000000, -0.000000000000000000, -1.000000000000000000 ) ) ;
#76 = VERTEX_POINT ( 'NONE', #164 ) ;
#77 =( LENGTH_UNIT ( ) NAMED_UNIT ( * ) SI_UNIT ( .MILLI., .METRE. ) );
#78 = VERTEX_POINT ( 'NONE', #24 ) ;
#79 = DIRECTION ( 'NONE',  ( 1.000000000000000000, 0.000000000000000000, 0.000000000000000000 ) ) ;
#80 = ORIENTED_EDGE ( 'NONE', *, *, #170, .F. ) ;
#81 = DIRECTION ( 'NONE',  ( 0.000000000000000000, 0.000000000000000000, 1.000000000000000000 ) ) ;
#82 = EDGE_CURVE ( 'NONE', #194, #298, #271, .T. ) ;
#83 = CIRCLE ( 'NONE', #255, 2.750000000000000000 ) ;
#84 = CC_DESIGN_PERSON_AND_ORGANIZATION_ASSIGNMENT ( #65, #133, ( #110 ) ) ;
#85 = PERSON_AND_ORGANIZATION ( #203, #158 ) ;
#86 = APPLICATION_CONTEXT ( 'configuration controlled 3d designs of mechanical parts and assemblies' ) ;
#87 = PERSON_AND_ORGANIZATION ( #203, #158 ) ;
#88 = EDGE_CURVE ( 'NONE', #76, #78, #19, .T. ) ;
#89 =( NAMED_UNIT ( * ) SI_UNIT ( $, .STERADIAN. ) SOLID_ANGLE_UNIT ( ) );
#90 = AXIS2_PLACEMENT_3D ( 'NONE', #101, #56, #167 ) ;
#91 = DATE_AND_TIME ( #266, #302 ) ;
#92 = CC_DESIGN_APPROVAL ( #295, ( #110 ) ) ;
#93 = DIRECTION ( 'NONE',  ( -0.000000000000000000, -0.000000000000000000, -1.000000000000000000 ) ) ;
#94 = FACE_OUTER_BOUND ( 'NONE', #162, .T. ) ;
#95 = DIRECTION ( 'NONE',  ( 0.000000000000000000, 0.000000000000000000, 1.000000000000000000 ) ) ;
#96 = ORIENTED_EDGE ( 'NONE', *, *, #297, .T. ) ;
#97 = CC_DESIGN_PERSON_AND_ORGANIZATION_ASSIGNMENT ( #178, #66, ( #305 ) ) ;
#98 = FACE_OUTER_BOUND ( 'NONE', #172, .T. ) ;
#99 = DIRECTION ( 'NONE',  ( 1.000000000000000000, 0.000000000000000000, 0.000000000000000000 ) ) ;
#100 = ORIENTED_EDGE ( 'NONE', *, *, #236, .T. ) ;
#101 = CARTESIAN_POINT ( 'NONE',  ( 2.949999999999999734, 0.000000000000000000, 3.199999999999994404 ) ) ;
#102 = DIRECTION ( 'NONE',  ( 0.000000000000000000, 0.000000000000000000, 1.000000000000000000 ) ) ;
#103 = VECTOR ( 'NONE', #50, 1000.000000000000000 ) ;
#104 = AXIS2_PLACEMENT_3D ( 'NONE', #2, #95, #189 ) ;
#105 = DIRECTION ( 'NONE',  ( -1.000000000000000000, 0.000000000000000000, 0.000000000000000000 ) ) ;
#106 = AXIS2_PLACEMENT_3D ( 'NONE', #249, #217, #124 ) ;
#107 = EDGE_LOOP ( 'NONE', ( #123, #149, #31, #51 ) ) ;
#108 = AXIS2_PLACEMENT_3D ( 'NONE', #67, #207, #182 ) ;
#109 = DIRECTION ( 'NONE',  ( 1.000000000000000000, 0.000000000000000000, -0.000000000000000000 ) ) ;
#110 = PRODUCT_DEFINITION_FORMATION_WITH_SPECIFIED_SOURCE ( 'LIBOVOLNÝ', '', #303, .NOT_KNOWN. ) ;
#111 = VECTOR ( 'NONE', #252, 1000.000000000000000 ) ;
#112 = CIRCLE ( 'NONE', #120, 2.750000000000000000 ) ;
#113 = PERSON_AND_ORGANIZATION_ROLE ( 'creator' ) ;
#114 = LOCAL_TIME ( 14, 44, 13.00000000000000000, #259 ) ;
#115 = EDGE_CURVE ( 'NONE', #33, #76, #137, .T. ) ;
#116 = CALENDAR_DATE ( 2022, 7, 7 ) ;
#117 = EDGE_CURVE ( 'NONE', #276, #9, #136, .T. ) ;
#118 = CARTESIAN_POINT ( 'NONE',  ( 0.000000000000000000, 0.000000000000000000, 103.0000000000000142 ) ) ;
#119 = AXIS2_PLACEMENT_3D ( 'NONE', #72, #93, #140 ) ;
#120 = AXIS2_PLACEMENT_3D ( 'NONE', #52, #229, #277 ) ;
#121 = DIRECTION ( 'NONE',  ( 1.000000000000000000, 0.000000000000000000, 0.000000000000000000 ) ) ;
#122 = PLANE ( 'NONE',  #21 ) ;
#123 = ORIENTED_EDGE ( 'NONE', *, *, #256, .F. ) ;
#124 = DIRECTION ( 'NONE',  ( -1.000000000000000000, 0.000000000000000000, 0.000000000000000000 ) ) ;
#125 = FACE_OUTER_BOUND ( 'NONE', #73, .T. ) ;
#126 = ORIENTED_EDGE ( 'NONE', *, *, #18, .T. ) ;
#127 = EDGE_LOOP ( 'NONE', ( #186, #254, #174, #230 ) ) ;
#128 = ADVANCED_FACE ( 'NONE', ( #125 ), #154, .F. ) ;
#129 = CARTESIAN_POINT ( 'NONE',  ( 0.000000000000000000, 0.000000000000000000, 0.000000000000000000 ) ) ;
#130 = ORIENTED_EDGE ( 'NONE', *, *, #18, .F. ) ;
#131 = DIRECTION ( 'NONE',  ( 0.000000000000000000, 0.000000000000000000, 1.000000000000000000 ) ) ;
#132 = ADVANCED_FACE ( 'NONE', ( #215 ), #287, .T. ) ;
#133 = PERSON_AND_ORGANIZATION_ROLE ( 'design_supplier' ) ;
#134 = DATE_TIME_ROLE ( 'classification_date' ) ;
#135 = AXIS2_PLACEMENT_3D ( 'NONE', #12, #28, #284 ) ;
#136 = LINE ( 'NONE', #247, #300 ) ;
#137 = LINE ( 'NONE', #269, #41 ) ;
#138 = DIRECTION ( 'NONE',  ( 1.000000000000000000, 0.000000000000000000, 0.000000000000000000 ) ) ;
#139 = ADVANCED_FACE ( 'NONE', ( #218 ), #8, .T. ) ;
#140 = DIRECTION ( 'NONE',  ( -1.000000000000000000, 0.000000000000000000, 0.000000000000000000 ) ) ;
#141 = EDGE_LOOP ( 'NONE', ( #6, #147 ) ) ;
#142 = CARTESIAN_POINT ( 'NONE',  ( 5.000000000000000000, 6.123233995736766282E-16, 3.000000000000000000 ) ) ;
#143 = EDGE_LOOP ( 'NONE', ( #216, #57, #165, #130 ) ) ;
#144 = ADVANCED_BREP_SHAPE_REPRESENTATION ( 'ec64', ( #238, #108 ), #161 ) ;
#145 = CC_DESIGN_PERSON_AND_ORGANIZATION_ASSIGNMENT ( #179, #264, ( #265 ) ) ;
#146 = CARTESIAN_POINT ( 'NONE',  ( -5.000000000000000000, 0.000000000000000000, 3.000000000000000000 ) ) ;
#147 = ORIENTED_EDGE ( 'NONE', *, *, #163, .T. ) ;
#148 = DIRECTION ( 'NONE',  ( -1.000000000000000000, 1.224646799147353207E-16, 0.000000000000000000 ) ) ;
#149 = ORIENTED_EDGE ( 'NONE', *, *, #187, .T. ) ;
#150 = FACE_BOUND ( 'NONE', #141, .T. ) ;
#151 = CIRCLE ( 'NONE', #61, 5.000000000000000000 ) ;
#152 = ADVANCED_FACE ( 'NONE', ( #30 ), #272, .T. ) ;
#153 = APPROVAL_STATUS ( 'not_yet_approved' ) ;
#154 = TOROIDAL_SURFACE ( 'NONE', #104, 2.949999999999999734, 0.2000000000000000111 ) ;
#155 = COORDINATED_UNIVERSAL_TIME_OFFSET ( 1, 0, .AHEAD. ) ;
#156 = DATE_AND_TIME ( #260, #114 ) ;
#157 = APPROVAL_ROLE ( '' ) ;
#158 = ORGANIZATION ( 'NEURÈENÝ', 'NEURÈENÝ', '' ) ;
#159 =( NAMED_UNIT ( * ) PLANE_ANGLE_UNIT ( ) SI_UNIT ( $, .RADIAN. ) );
#160 = CARTESIAN_POINT ( 'NONE',  ( 0.000000000000000000, 0.000000000000000000, 3.000000000000000000 ) ) ;
#161 =( GEOMETRIC_REPRESENTATION_CONTEXT ( 3 ) GLOBAL_UNCERTAINTY_ASSIGNED_CONTEXT ( ( #17 ) ) GLOBAL_UNIT_ASSIGNED_CONTEXT ( ( #77, #159, #89 ) ) REPRESENTATION_CONTEXT ( 'NONE', 'WORKASPACE' ) );
#162 = EDGE_LOOP ( 'NONE', ( #169, #227 ) ) ;
#163 = EDGE_CURVE ( 'NONE', #298, #194, #46, .T. ) ;
#164 = CARTESIAN_POINT ( 'NONE',  ( 2.750000000000000000, 3.367778697655221012E-16, 3.199999999999994404 ) ) ;
#165 = ORIENTED_EDGE ( 'NONE', *, *, #88, .T. ) ;
#166 = CLOSED_SHELL ( 'NONE', ( #36, #139, #132, #231, #261, #242, #152, #25, #128 ) ) ;
#167 = DIRECTION ( 'NONE',  ( 0.000000000000000000, 0.000000000000000000, -1.000000000000000000 ) ) ;
#168 = DIRECTION ( 'NONE',  ( -1.000000000000000000, 0.000000000000000000, 0.000000000000000000 ) ) ;
#169 = ORIENTED_EDGE ( 'NONE', *, *, #62, .T. ) ;
#170 = EDGE_CURVE ( 'NONE', #9, #27, #280, .T. ) ;
#171 = CARTESIAN_POINT ( 'NONE',  ( 2.949999999999999734, 0.000000000000000000, 2.999999999999997335 ) ) ;
#172 = EDGE_LOOP ( 'NONE', ( #219, #4 ) ) ;
#173 = DIRECTION ( 'NONE',  ( -0.000000000000000000, -0.000000000000000000, -1.000000000000000000 ) ) ;
#174 = ORIENTED_EDGE ( 'NONE', *, *, #170, .T. ) ;
#175 = DIRECTION ( 'NONE',  ( 1.000000000000000000, 0.000000000000000000, 0.000000000000000000 ) ) ;
#176 = AXIS2_PLACEMENT_3D ( 'NONE', #160, #184, #286 ) ;
#177 = EDGE_CURVE ( 'NONE', #292, #27, #198, .T. ) ;
#178 = PERSON_AND_ORGANIZATION ( #203, #158 ) ;
#179 = PERSON_AND_ORGANIZATION ( #203, #158 ) ;
#180 = APPROVAL_ROLE ( '' ) ;
#181 = PRODUCT_RELATED_PRODUCT_CATEGORY ( 'detail', '', ( #303 ) ) ;
#182 = DIRECTION ( 'NONE',  ( 1.000000000000000000, 0.000000000000000000, 0.000000000000000000 ) ) ;
#183 = APPROVAL_PERSON_ORGANIZATION ( #87, #204, #157 ) ;
#184 = DIRECTION ( 'NONE',  ( 0.000000000000000000, 0.000000000000000000, 1.000000000000000000 ) ) ;
#185 = AXIS2_PLACEMENT_3D ( 'NONE', #5, #53, #48 ) ;
#186 = ORIENTED_EDGE ( 'NONE', *, *, #289, .F. ) ;
#187 = EDGE_CURVE ( 'NONE', #78, #298, #214, .T. ) ;
#188 = CIRCLE ( 'NONE', #90, 0.2000000000000000944 ) ;
#189 = DIRECTION ( 'NONE',  ( 1.000000000000000000, 0.000000000000000000, 0.000000000000000000 ) ) ;
#190 = ORIENTED_EDGE ( 'NONE', *, *, #187, .F. ) ;
#191 = APPROVAL_PERSON_ORGANIZATION ( #47, #295, #180 ) ;
#192 = DIRECTION ( 'NONE',  ( 0.000000000000000000, 0.000000000000000000, 1.000000000000000000 ) ) ;
#193 = CARTESIAN_POINT ( 'NONE',  ( 0.000000000000000000, 0.000000000000000000, 103.0000000000000142 ) ) ;
#194 = VERTEX_POINT ( 'NONE', #171 ) ;
#195 = CARTESIAN_POINT ( 'NONE',  ( -5.000000000000000000, 0.000000000000000000, 3.000000000000000000 ) ) ;
#196 = DIRECTION ( 'NONE',  ( -0.000000000000000000, -0.000000000000000000, -1.000000000000000000 ) ) ;
#197 = EDGE_LOOP ( 'NONE', ( #270, #80 ) ) ;
#198 = LINE ( 'NONE', #146, #111 ) ;
#199 = ORIENTED_EDGE ( 'NONE', *, *, #117, .F. ) ;
#200 = CARTESIAN_POINT ( 'NONE',  ( 0.000000000000000000, 0.000000000000000000, 3.000000000000000000 ) ) ;
#201 = LOCAL_TIME ( 14, 44, 13.00000000000000000, #206 ) ;
#202 = AXIS2_PLACEMENT_3D ( 'NONE', #118, #102, #99 ) ;
#203 = PERSON ( 'NEURÈENÝ', 'NEURÈENÝ', 'NEURÈENÝ', ('NEURÈENÝ'), ('NEURÈENÝ'), ('NEURÈENÝ') ) ;
#204 = APPROVAL ( #209, 'NEURÈENÝ' ) ;
#205 = AXIS2_PLACEMENT_3D ( 'NONE', #14, #296, #148 ) ;
#206 = COORDINATED_UNIVERSAL_TIME_OFFSET ( 1, 0, .AHEAD. ) ;
#207 = DIRECTION ( 'NONE',  ( 0.000000000000000000, 0.000000000000000000, 1.000000000000000000 ) ) ;
#208 = PERSON_AND_ORGANIZATION ( #203, #158 ) ;
#209 = APPROVAL_STATUS ( 'not_yet_approved' ) ;
#210 = CARTESIAN_POINT ( 'NONE',  ( 0.000000000000000000, 0.000000000000000000, 3.000000000000000000 ) ) ;
#211 = CC_DESIGN_APPROVAL ( #204, ( #265 ) ) ;
#212 = EDGE_CURVE ( 'NONE', #33, #55, #112, .T. ) ;
#213 = DIRECTION ( 'NONE',  ( -0.000000000000000000, -0.000000000000000000, -1.000000000000000000 ) ) ;
#214 = CIRCLE ( 'NONE', #205, 0.2000000000000000944 ) ;
#215 = FACE_OUTER_BOUND ( 'NONE', #127, .T. ) ;
#216 = ORIENTED_EDGE ( 'NONE', *, *, #212, .F. ) ;
#217 = DIRECTION ( 'NONE',  ( -0.000000000000000000, -0.000000000000000000, -1.000000000000000000 ) ) ;
#218 = FACE_OUTER_BOUND ( 'NONE', #143, .T. ) ;
#219 = ORIENTED_EDGE ( 'NONE', *, *, #39, .T. ) ;
#220 = APPLICATION_CONTEXT ( 'configuration controlled 3d designs of mechanical parts and assemblies' ) ;
#221 = APPROVAL ( #307, 'NEURÈENÝ' ) ;
#222 = DIRECTION ( 'NONE',  ( -0.000000000000000000, -0.000000000000000000, -1.000000000000000000 ) ) ;
#223 = CARTESIAN_POINT ( 'NONE',  ( -2.750000000000000000, 0.000000000000000000, 103.0000000000000142 ) ) ;
#224 = ORIENTED_EDGE ( 'NONE', *, *, #39, .F. ) ;
#225 = CARTESIAN_POINT ( 'NONE',  ( 0.000000000000000000, 0.000000000000000000, 3.000000000000000000 ) ) ;
#226 = AXIS2_PLACEMENT_3D ( 'NONE', #129, #192, #121 ) ;
#227 = ORIENTED_EDGE ( 'NONE', *, *, #212, .T. ) ;
#228 = AXIS2_PLACEMENT_3D ( 'NONE', #29, #131, #109 ) ;
#229 = DIRECTION ( 'NONE',  ( 0.000000000000000000, 0.000000000000000000, 1.000000000000000000 ) ) ;
#230 = ORIENTED_EDGE ( 'NONE', *, *, #177, .F. ) ;
#231 = ADVANCED_FACE ( 'NONE', ( #58 ), #257, .T. ) ;
#232 = AXIS2_PLACEMENT_3D ( 'NONE', #193, #75, #168 ) ;
#233 = DESIGN_CONTEXT ( 'detailed design', #86, 'design' ) ;
#234 = AXIS2_PLACEMENT_3D ( 'NONE', #278, #35, #138 ) ;
#235 = COORDINATED_UNIVERSAL_TIME_OFFSET ( 1, 0, .AHEAD. ) ;
#236 = EDGE_CURVE ( 'NONE', #76, #194, #188, .T. ) ;
#237 = MECHANICAL_CONTEXT ( 'NONE', #220, 'mechanical' ) ;
#238 = MANIFOLD_SOLID_BREP ( 'Zaoblit1', #166 ) ;
#239 = TOROIDAL_SURFACE ( 'NONE', #135, 2.949999999999999734, 0.2000000000000000111 ) ;
#240 = DATE_AND_TIME ( #1, #10 ) ;
#241 = CC_DESIGN_PERSON_AND_ORGANIZATION_ASSIGNMENT ( #85, #113, ( #110 ) ) ;
#242 = ADVANCED_FACE ( 'NONE', ( #16 ), #7, .F. ) ;
#243 = FACE_OUTER_BOUND ( 'NONE', #107, .T. ) ;
#244 = CARTESIAN_POINT ( 'NONE',  ( 2.750000000000000000, 3.367778697655221012E-16, 103.0000000000000142 ) ) ;
#245 = ORIENTED_EDGE ( 'NONE', *, *, #115, .F. ) ;
#246 = CARTESIAN_POINT ( 'NONE',  ( -2.949999999999999734, 3.612708057484692097E-16, 2.999999999999997335 ) ) ;
#247 = CARTESIAN_POINT ( 'NONE',  ( 5.000000000000000000, 6.123233995736766282E-16, 3.000000000000000000 ) ) ;
#248 = EDGE_LOOP ( 'NONE', ( #245, #274, #126, #294 ) ) ;
#249 = CARTESIAN_POINT ( 'NONE',  ( 0.000000000000000000, 0.000000000000000000, 3.000000000000000000 ) ) ;
#250 = DIRECTION ( 'NONE',  ( 0.000000000000000000, 0.000000000000000000, 1.000000000000000000 ) ) ;
#251 = ORIENTED_EDGE ( 'NONE', *, *, #163, .F. ) ;
#252 = DIRECTION ( 'NONE',  ( -0.000000000000000000, -0.000000000000000000, -1.000000000000000000 ) ) ;
#253 = AXIS2_PLACEMENT_3D ( 'NONE', #34, #173, #105 ) ;
#254 = ORIENTED_EDGE ( 'NONE', *, *, #117, .T. ) ;
#255 = AXIS2_PLACEMENT_3D ( 'NONE', #293, #81, #74 ) ;
#256 = EDGE_CURVE ( 'NONE', #78, #76, #83, .T. ) ;
#257 = CYLINDRICAL_SURFACE ( 'NONE', #106, 5.000000000000000000 ) ;
#258 = APPROVAL_PERSON_ORGANIZATION ( #208, #221, #22 ) ;
#259 = COORDINATED_UNIVERSAL_TIME_OFFSET ( 1, 0, .AHEAD. ) ;
#260 = CALENDAR_DATE ( 2022, 7, 7 ) ;
#261 = ADVANCED_FACE ( 'NONE', ( #150, #98 ), #60, .T. ) ;
#262 = PRODUCT_DEFINITION_SHAPE ( 'NONE', 'NONE',  #265 ) ;
#263 = CALENDAR_DATE ( 2022, 7, 7 ) ;
#264 = PERSON_AND_ORGANIZATION_ROLE ( 'creator' ) ;
#265 = PRODUCT_DEFINITION ( 'NEZNÁMÝ', '', #110, #233 ) ;
#266 = CALENDAR_DATE ( 2022, 7, 7 ) ;
#267 = DIRECTION ( 'NONE',  ( 1.000000000000000000, 0.000000000000000000, 0.000000000000000000 ) ) ;
#268 = CARTESIAN_POINT ( 'NONE',  ( 0.000000000000000000, 0.000000000000000000, 103.0000000000000142 ) ) ;
#269 = CARTESIAN_POINT ( 'NONE',  ( 2.750000000000000000, 3.367778697655221012E-16, 103.0000000000000142 ) ) ;
#270 = ORIENTED_EDGE ( 'NONE', *, *, #297, .F. ) ;
#271 = CIRCLE ( 'NONE', #37, 2.949999999999999734 ) ;
#272 = CYLINDRICAL_SURFACE ( 'NONE', #253, 2.750000000000000000 ) ;
#273 = CARTESIAN_POINT ( 'NONE',  ( -5.000000000000000000, 0.000000000000000000, 0.000000000000000000 ) ) ;
#274 = ORIENTED_EDGE ( 'NONE', *, *, #62, .F. ) ;
#275 = DIRECTION ( 'NONE',  ( 1.000000000000000000, 0.000000000000000000, -0.000000000000000000 ) ) ;
#276 = VERTEX_POINT ( 'NONE', #142 ) ;
#277 = DIRECTION ( 'NONE',  ( 1.000000000000000000, 0.000000000000000000, 0.000000000000000000 ) ) ;
#278 = CARTESIAN_POINT ( 'NONE',  ( 0.000000000000000000, 0.000000000000000000, 0.000000000000000000 ) ) ;
#279 = CC_DESIGN_DATE_AND_TIME_ASSIGNMENT ( #43, #134, ( #305 ) ) ;
#280 = CIRCLE ( 'NONE', #226, 5.000000000000000000 ) ;
#281 = PERSON_AND_ORGANIZATION_ROLE ( 'design_owner' ) ;
#282 = SECURITY_CLASSIFICATION_LEVEL ( 'unclassified' ) ;
#283 = COORDINATED_UNIVERSAL_TIME_OFFSET ( 1, 0, .AHEAD. ) ;
#284 = DIRECTION ( 'NONE',  ( 1.000000000000000000, 0.000000000000000000, 0.000000000000000000 ) ) ;
#285 = SHAPE_DEFINITION_REPRESENTATION ( #262, #144 ) ;
#286 = DIRECTION ( 'NONE',  ( 1.000000000000000000, 0.000000000000000000, 0.000000000000000000 ) ) ;
#287 = CYLINDRICAL_SURFACE ( 'NONE', #119, 5.000000000000000000 ) ;
#288 = EDGE_LOOP ( 'NONE', ( #199, #224, #15, #96 ) ) ;
#289 = EDGE_CURVE ( 'NONE', #276, #292, #151, .T. ) ;
#290 = DIRECTION ( 'NONE',  ( 0.000000000000000000, 0.000000000000000000, 1.000000000000000000 ) ) ;
#291 = LINE ( 'NONE', #223, #103 ) ;
#292 = VERTEX_POINT ( 'NONE', #195 ) ;
#293 = CARTESIAN_POINT ( 'NONE',  ( 0.000000000000000000, 0.000000000000000000, 3.199999999999994404 ) ) ;
#294 = ORIENTED_EDGE ( 'NONE', *, *, #256, .T. ) ;
#295 = APPROVAL ( #153, 'NEURÈENÝ' ) ;
#296 = DIRECTION ( 'NONE',  ( 1.224646799147353207E-16, 1.000000000000000000, -0.000000000000000000 ) ) ;
#297 = EDGE_CURVE ( 'NONE', #27, #9, #54, .T. ) ;
#298 = VERTEX_POINT ( 'NONE', #246 ) ;
#299 = DIRECTION ( 'NONE',  ( 0.000000000000000000, 0.000000000000000000, 1.000000000000000000 ) ) ;
#300 = VECTOR ( 'NONE', #196, 1000.000000000000000 ) ;
#301 = AXIS2_PLACEMENT_3D ( 'NONE', #200, #290, #275 ) ;
#302 = LOCAL_TIME ( 14, 44, 13.00000000000000000, #155 ) ;
#303 = PRODUCT ( 'ec64', 'ec64', '', ( #237 ) ) ;
#304 = APPROVAL_DATE_TIME ( #156, #204 ) ;
#305 = SECURITY_CLASSIFICATION ( '', '', #282 ) ;
#306 = APPLICATION_PROTOCOL_DEFINITION ( 'international standard', 'config_control_design', 1994, #86 ) ;
#307 = APPROVAL_STATUS ( 'not_yet_approved' ) ;
ENDSEC;
END-ISO-10303-21;
