ISO-10303-21;
HEADER;
FILE_DESCRIPTION (( 'STEP AP203' ),
    '1' );
FILE_NAME ('4549.STEP',
    '2023-02-12T10:38:30',
    ( '' ),
    ( '' ),
    'SwSTEP 2.0',
    'SolidWorks 2019',
    '' );
FILE_SCHEMA (( 'CONFIG_CONTROL_DESIGN' ));
ENDSEC;

DATA;
#1 = PLANE ( 'NONE',  #177 ) ;
#2 = CARTESIAN_POINT ( 'NONE',  ( -12.00000000000000178, 0.000000000000000000, 7.000000000000000000 ) ) ;
#3 = PERSON_AND_ORGANIZATION_ROLE ( 'classification_officer' ) ;
#4 = DIRECTION ( 'NONE',  ( 1.000000000000000000, 0.000000000000000000, 0.000000000000000000 ) ) ;
#5 = FACE_OUTER_BOUND ( 'NONE', #12, .T. ) ;
#6 = DIRECTION ( 'NONE',  ( -0.000000000000000000, -0.000000000000000000, -1.000000000000000000 ) ) ;
#7 = CARTESIAN_POINT ( 'NONE',  ( 12.00000000000000178, 1.469576158976824144E-15, 0.000000000000000000 ) ) ;
#8 = LOCAL_TIME ( 11, 38, 30.00000000000000000, #35 ) ;
#9 = ORIENTED_EDGE ( 'NONE', *, *, #10, .F. ) ;
#10 = EDGE_CURVE ( 'NONE', #52, #53, #111, .T. ) ;
#11 = VECTOR ( 'NONE', #174, 1000.000000000000000 ) ;
#12 = EDGE_LOOP ( 'NONE', ( #209, #187 ) ) ;
#13 = AXIS2_PLACEMENT_3D ( 'NONE', #64, #182, #222 ) ;
#14 = APPLICATION_PROTOCOL_DEFINITION ( 'international standard', 'config_control_design', 1994, #83 ) ;
#15 =( NAMED_UNIT ( * ) SI_UNIT ( $, .STERADIAN. ) SOLID_ANGLE_UNIT ( ) );
#16 = DIRECTION ( 'NONE',  ( -0.000000000000000000, -0.000000000000000000, -1.000000000000000000 ) ) ;
#17 = PRODUCT_DEFINITION_FORMATION_WITH_SPECIFIED_SOURCE ( 'LIBOVOLNÝ', '', #37, .NOT_KNOWN. ) ;
#18 = CALENDAR_DATE ( 2023, 12, 2 ) ;
#19 = DIRECTION ( 'NONE',  ( 0.000000000000000000, 0.000000000000000000, 1.000000000000000000 ) ) ;
#20 = CC_DESIGN_PERSON_AND_ORGANIZATION_ASSIGNMENT ( #147, #175, ( #17 ) ) ;
#21 = AXIS2_PLACEMENT_3D ( 'NONE', #30, #148, #186 ) ;
#22 = CARTESIAN_POINT ( 'NONE',  ( 0.000000000000000000, 0.000000000000000000, 0.000000000000000000 ) ) ;
#23 = DIRECTION ( 'NONE',  ( 0.000000000000000000, 0.000000000000000000, 1.000000000000000000 ) ) ;
#24 = DIRECTION ( 'NONE',  ( -0.000000000000000000, -0.000000000000000000, -1.000000000000000000 ) ) ;
#25 = DIRECTION ( 'NONE',  ( 0.000000000000000000, 0.000000000000000000, 1.000000000000000000 ) ) ;
#26 = DIRECTION ( 'NONE',  ( 1.000000000000000000, 0.000000000000000000, 0.000000000000000000 ) ) ;
#27 = COORDINATED_UNIVERSAL_TIME_OFFSET ( 1, 0, .AHEAD. ) ;
#28 = CYLINDRICAL_SURFACE ( 'NONE', #119, 9.000000000000001776 ) ;
#29 = ORIENTED_EDGE ( 'NONE', *, *, #253, .T. ) ;
#30 = CARTESIAN_POINT ( 'NONE',  ( 0.000000000000000000, 0.000000000000000000, 0.000000000000000000 ) ) ;
#31 = VERTEX_POINT ( 'NONE', #96 ) ;
#32 = CC_DESIGN_PERSON_AND_ORGANIZATION_ASSIGNMENT ( #132, #215, ( #146 ) ) ;
#33 = EDGE_LOOP ( 'NONE', ( #227, #50, #193, #84 ) ) ;
#34 = DATE_AND_TIME ( #213, #108 ) ;
#35 = COORDINATED_UNIVERSAL_TIME_OFFSET ( 1, 0, .AHEAD. ) ;
#36 = ORIENTED_EDGE ( 'NONE', *, *, #128, .T. ) ;
#37 = PRODUCT ( '4549', '4549', '', ( #109 ) ) ;
#38 = VECTOR ( 'NONE', #139, 1000.000000000000000 ) ;
#39 = SHAPE_DEFINITION_REPRESENTATION ( #226, #145 ) ;
#40 = EDGE_CURVE ( 'NONE', #52, #115, #71, .T. ) ;
#41 = DIRECTION ( 'NONE',  ( 1.000000000000000000, 0.000000000000000000, -0.000000000000000000 ) ) ;
#42 = PERSON_AND_ORGANIZATION ( #229, #210 ) ;
#43 = FACE_BOUND ( 'NONE', #51, .T. ) ;
#44 = CYLINDRICAL_SURFACE ( 'NONE', #237, 12.00000000000000178 ) ;
#45 = CIRCLE ( 'NONE', #157, 12.00000000000000178 ) ;
#46 = PLANE ( 'NONE',  #199 ) ;
#47 = LOCAL_TIME ( 11, 38, 30.00000000000000000, #135 ) ;
#48 = ORIENTED_EDGE ( 'NONE', *, *, #40, .F. ) ;
#49 = ORIENTED_EDGE ( 'NONE', *, *, #142, .F. ) ;
#50 = ORIENTED_EDGE ( 'NONE', *, *, #158, .T. ) ;
#51 = EDGE_LOOP ( 'NONE', ( #49, #70 ) ) ;
#52 = VERTEX_POINT ( 'NONE', #93 ) ;
#53 = VERTEX_POINT ( 'NONE', #238 ) ;
#54 = CARTESIAN_POINT ( 'NONE',  ( 0.000000000000000000, 0.000000000000000000, 7.000000000000000000 ) ) ;
#55 = CC_DESIGN_DATE_AND_TIME_ASSIGNMENT ( #200, #196, ( #98 ) ) ;
#56 = APPROVAL_ROLE ( '' ) ;
#57 = CARTESIAN_POINT ( 'NONE',  ( 0.000000000000000000, 0.000000000000000000, 125.0000000000000000 ) ) ;
#58 = CIRCLE ( 'NONE', #214, 12.00000000000000178 ) ;
#59 = APPROVAL_STATUS ( 'not_yet_approved' ) ;
#60 = CARTESIAN_POINT ( 'NONE',  ( -12.00000000000000178, 0.000000000000000000, 7.000000000000000000 ) ) ;
#61 = AXIS2_PLACEMENT_3D ( 'NONE', #160, #201, #63 ) ;
#62 = CARTESIAN_POINT ( 'NONE',  ( 12.00000000000000178, 1.469576158976824144E-15, 7.000000000000000000 ) ) ;
#63 = DIRECTION ( 'NONE',  ( -1.000000000000000000, 0.000000000000000000, 0.000000000000000000 ) ) ;
#64 = CARTESIAN_POINT ( 'NONE',  ( 0.000000000000000000, 0.000000000000000000, 7.000000000000000000 ) ) ;
#65 = ADVANCED_FACE ( 'NONE', ( #198 ), #176, .T. ) ;
#66 = COORDINATED_UNIVERSAL_TIME_OFFSET ( 1, 0, .AHEAD. ) ;
#67 = APPROVAL_DATE_TIME ( #163, #117 ) ;
#68 = AXIS2_PLACEMENT_3D ( 'NONE', #178, #234, #114 ) ;
#69 = CARTESIAN_POINT ( 'NONE',  ( 0.000000000000000000, 0.000000000000000000, 125.0000000000000000 ) ) ;
#70 = ORIENTED_EDGE ( 'NONE', *, *, #236, .F. ) ;
#71 = CIRCLE ( 'NONE', #68, 9.000000000000001776 ) ;
#72 = PERSON_AND_ORGANIZATION ( #229, #210 ) ;
#73 = DIRECTION ( 'NONE',  ( 1.000000000000000000, 0.000000000000000000, -0.000000000000000000 ) ) ;
#74 = DATE_AND_TIME ( #179, #47 ) ;
#75 = ORIENTED_EDGE ( 'NONE', *, *, #122, .T. ) ;
#76 = LINE ( 'NONE', #60, #38 ) ;
#77 = LINE ( 'NONE', #62, #169 ) ;
#78 = DIRECTION ( 'NONE',  ( 0.000000000000000000, 0.000000000000000000, 1.000000000000000000 ) ) ;
#79 = CYLINDRICAL_SURFACE ( 'NONE', #61, 9.000000000000001776 ) ;
#80 = AXIS2_PLACEMENT_3D ( 'NONE', #123, #25, #140 ) ;
#81 = CARTESIAN_POINT ( 'NONE',  ( 0.000000000000000000, 0.000000000000000000, 7.000000000000000000 ) ) ;
#82 = CALENDAR_DATE ( 2023, 12, 2 ) ;
#83 = APPLICATION_CONTEXT ( 'configuration controlled 3d designs of mechanical parts and assemblies' ) ;
#84 = ORIENTED_EDGE ( 'NONE', *, *, #253, .F. ) ;
#85 = PERSON_AND_ORGANIZATION_ROLE ( 'design_owner' ) ;
#86 = ORIENTED_EDGE ( 'NONE', *, *, #231, .F. ) ;
#87 = ORIENTED_EDGE ( 'NONE', *, *, #128, .F. ) ;
#88 = CC_DESIGN_APPROVAL ( #185, ( #98 ) ) ;
#89 = CC_DESIGN_PERSON_AND_ORGANIZATION_ASSIGNMENT ( #188, #85, ( #37 ) ) ;
#90 = PERSON_AND_ORGANIZATION ( #229, #210 ) ;
#91 = CARTESIAN_POINT ( 'NONE',  ( 9.000000000000001776, 1.102182119232617911E-15, 125.0000000000000000 ) ) ;
#92 = DATE_AND_TIME ( #18, #8 ) ;
#93 = CARTESIAN_POINT ( 'NONE',  ( 9.000000000000001776, 1.102182119232617911E-15, 125.0000000000000000 ) ) ;
#94 = ADVANCED_FACE ( 'NONE', ( #216 ), #1, .T. ) ;
#95 = APPROVAL_DATE_TIME ( #74, #185 ) ;
#96 = CARTESIAN_POINT ( 'NONE',  ( -12.00000000000000178, 0.000000000000000000, 0.000000000000000000 ) ) ;
#97 = CIRCLE ( 'NONE', #172, 12.00000000000000178 ) ;
#98 = SECURITY_CLASSIFICATION ( '', '', #113 ) ;
#99 = CARTESIAN_POINT ( 'NONE',  ( -9.000000000000001776, 0.000000000000000000, 125.0000000000000000 ) ) ;
#100 = PERSON_AND_ORGANIZATION_ROLE ( 'design_supplier' ) ;
#101 = AXIS2_PLACEMENT_3D ( 'NONE', #138, #23, #156 ) ;
#102 = FACE_OUTER_BOUND ( 'NONE', #228, .T. ) ;
#103 = APPROVAL ( #254, 'NEURÈENÝ' ) ;
#104 = DIRECTION ( 'NONE',  ( 0.000000000000000000, 0.000000000000000000, 1.000000000000000000 ) ) ;
#105 = PLANE ( 'NONE',  #130 ) ;
#106 = ORIENTED_EDGE ( 'NONE', *, *, #112, .F. ) ;
#107 =( GEOMETRIC_REPRESENTATION_CONTEXT ( 3 ) GLOBAL_UNCERTAINTY_ASSIGNED_CONTEXT ( ( #134 ) ) GLOBAL_UNIT_ASSIGNED_CONTEXT ( ( #233, #170, #15 ) ) REPRESENTATION_CONTEXT ( 'NONE', 'WORKASPACE' ) );
#108 = LOCAL_TIME ( 11, 38, 30.00000000000000000, #66 ) ;
#109 = MECHANICAL_CONTEXT ( 'NONE', #168, 'mechanical' ) ;
#110 = ORIENTED_EDGE ( 'NONE', *, *, #142, .T. ) ;
#111 = LINE ( 'NONE', #91, #11 ) ;
#112 = EDGE_CURVE ( 'NONE', #115, #52, #221, .T. ) ;
#113 = SECURITY_CLASSIFICATION_LEVEL ( 'unclassified' ) ;
#114 = DIRECTION ( 'NONE',  ( 1.000000000000000000, 0.000000000000000000, 0.000000000000000000 ) ) ;
#115 = VERTEX_POINT ( 'NONE', #99 ) ;
#116 = COORDINATED_UNIVERSAL_TIME_OFFSET ( 1, 0, .AHEAD. ) ;
#117 = APPROVAL ( #207, 'NEURÈENÝ' ) ;
#118 = DIRECTION ( 'NONE',  ( -0.000000000000000000, -0.000000000000000000, -1.000000000000000000 ) ) ;
#119 = AXIS2_PLACEMENT_3D ( 'NONE', #69, #153, #250 ) ;
#120 = CARTESIAN_POINT ( 'NONE',  ( 0.000000000000000000, 0.000000000000000000, 0.000000000000000000 ) ) ;
#121 = DIRECTION ( 'NONE',  ( -1.000000000000000000, 0.000000000000000000, 0.000000000000000000 ) ) ;
#122 = EDGE_CURVE ( 'NONE', #115, #212, #242, .T. ) ;
#123 = CARTESIAN_POINT ( 'NONE',  ( 0.000000000000000000, 0.000000000000000000, 7.000000000000000000 ) ) ;
#124 = PERSON_AND_ORGANIZATION ( #229, #210 ) ;
#125 = DESIGN_CONTEXT ( 'detailed design', #83, 'design' ) ;
#126 = EDGE_LOOP ( 'NONE', ( #9, #106, #75, #110 ) ) ;
#127 = CC_DESIGN_APPROVAL ( #117, ( #17 ) ) ;
#128 = EDGE_CURVE ( 'NONE', #31, #151, #58, .T. ) ;
#129 = ORIENTED_EDGE ( 'NONE', *, *, #236, .T. ) ;
#130 = AXIS2_PLACEMENT_3D ( 'NONE', #81, #240, #161 ) ;
#131 = APPROVAL_ROLE ( '' ) ;
#132 = PERSON_AND_ORGANIZATION ( #229, #210 ) ;
#133 = DIRECTION ( 'NONE',  ( -1.000000000000000000, 0.000000000000000000, 0.000000000000000000 ) ) ;
#134 = UNCERTAINTY_MEASURE_WITH_UNIT (LENGTH_MEASURE( 1.000000000000000082E-05 ), #233, 'distance_accuracy_value', 'NONE');
#135 = COORDINATED_UNIVERSAL_TIME_OFFSET ( 1, 0, .AHEAD. ) ;
#136 = PRODUCT_RELATED_PRODUCT_CATEGORY ( 'detail', '', ( #37 ) ) ;
#137 = CLOSED_SHELL ( 'NONE', ( #211, #65, #181, #249, #166, #255, #94 ) ) ;
#138 = CARTESIAN_POINT ( 'NONE',  ( 0.000000000000000000, 0.000000000000000000, 7.000000000000000000 ) ) ;
#139 = DIRECTION ( 'NONE',  ( -0.000000000000000000, -0.000000000000000000, -1.000000000000000000 ) ) ;
#140 = DIRECTION ( 'NONE',  ( 1.000000000000000000, 0.000000000000000000, 0.000000000000000000 ) ) ;
#141 = DIRECTION ( 'NONE',  ( 0.000000000000000000, 0.000000000000000000, 1.000000000000000000 ) ) ;
#142 = EDGE_CURVE ( 'NONE', #212, #53, #245, .T. ) ;
#143 = DIRECTION ( 'NONE',  ( 1.000000000000000000, 0.000000000000000000, 0.000000000000000000 ) ) ;
#144 = APPROVAL_PERSON_ORGANIZATION ( #42, #185, #56 ) ;
#145 = ADVANCED_BREP_SHAPE_REPRESENTATION ( '4549', ( #165, #21 ), #107 ) ;
#146 = PRODUCT_DEFINITION ( 'NEZNÁMÝ', '', #17, #125 ) ;
#147 = PERSON_AND_ORGANIZATION ( #229, #210 ) ;
#148 = DIRECTION ( 'NONE',  ( 0.000000000000000000, 0.000000000000000000, 1.000000000000000000 ) ) ;
#149 = ORIENTED_EDGE ( 'NONE', *, *, #10, .T. ) ;
#150 = CC_DESIGN_PERSON_AND_ORGANIZATION_ASSIGNMENT ( #72, #3, ( #98 ) ) ;
#151 = VERTEX_POINT ( 'NONE', #7 ) ;
#152 = ORIENTED_EDGE ( 'NONE', *, *, #40, .T. ) ;
#153 = DIRECTION ( 'NONE',  ( -0.000000000000000000, -0.000000000000000000, -1.000000000000000000 ) ) ;
#154 = AXIS2_PLACEMENT_3D ( 'NONE', #54, #16, #133 ) ;
#155 = DIRECTION ( 'NONE',  ( 0.000000000000000000, 0.000000000000000000, 1.000000000000000000 ) ) ;
#156 = DIRECTION ( 'NONE',  ( 1.000000000000000000, 0.000000000000000000, 0.000000000000000000 ) ) ;
#157 = AXIS2_PLACEMENT_3D ( 'NONE', #206, #202, #180 ) ;
#158 = EDGE_CURVE ( 'NONE', #164, #151, #77, .T. ) ;
#159 = CARTESIAN_POINT ( 'NONE',  ( -9.000000000000001776, 0.000000000000000000, 125.0000000000000000 ) ) ;
#160 = CARTESIAN_POINT ( 'NONE',  ( 0.000000000000000000, 0.000000000000000000, 125.0000000000000000 ) ) ;
#161 = DIRECTION ( 'NONE',  ( 1.000000000000000000, 0.000000000000000000, -0.000000000000000000 ) ) ;
#162 = CC_DESIGN_APPROVAL ( #103, ( #146 ) ) ;
#163 = DATE_AND_TIME ( #82, #183 ) ;
#164 = VERTEX_POINT ( 'NONE', #244 ) ;
#165 = MANIFOLD_SOLID_BREP ( 'Pøidat vysunutím3', #137 ) ;
#166 = ADVANCED_FACE ( 'NONE', ( #218 ), #46, .F. ) ;
#167 = EDGE_LOOP ( 'NONE', ( #87, #86 ) ) ;
#168 = APPLICATION_CONTEXT ( 'configuration controlled 3d designs of mechanical parts and assemblies' ) ;
#169 = VECTOR ( 'NONE', #24, 1000.000000000000000 ) ;
#170 =( NAMED_UNIT ( * ) PLANE_ANGLE_UNIT ( ) SI_UNIT ( $, .RADIAN. ) );
#171 = EDGE_CURVE ( 'NONE', #252, #164, #251, .T. ) ;
#172 = AXIS2_PLACEMENT_3D ( 'NONE', #22, #141, #143 ) ;
#173 = LOCAL_TIME ( 11, 38, 30.00000000000000000, #116 ) ;
#174 = DIRECTION ( 'NONE',  ( -0.000000000000000000, -0.000000000000000000, -1.000000000000000000 ) ) ;
#175 = PERSON_AND_ORGANIZATION_ROLE ( 'creator' ) ;
#176 = CYLINDRICAL_SURFACE ( 'NONE', #154, 12.00000000000000178 ) ;
#177 = AXIS2_PLACEMENT_3D ( 'NONE', #235, #19, #73 ) ;
#178 = CARTESIAN_POINT ( 'NONE',  ( 0.000000000000000000, 0.000000000000000000, 125.0000000000000000 ) ) ;
#179 = CALENDAR_DATE ( 2023, 12, 2 ) ;
#180 = DIRECTION ( 'NONE',  ( 1.000000000000000000, 0.000000000000000000, 0.000000000000000000 ) ) ;
#181 = ADVANCED_FACE ( 'NONE', ( #220 ), #44, .T. ) ;
#182 = DIRECTION ( 'NONE',  ( 0.000000000000000000, 0.000000000000000000, 1.000000000000000000 ) ) ;
#183 = LOCAL_TIME ( 11, 38, 30.00000000000000000, #27 ) ;
#184 = CARTESIAN_POINT ( 'NONE',  ( 0.000000000000000000, 0.000000000000000000, 7.000000000000000000 ) ) ;
#185 = APPROVAL ( #59, 'NEURÈENÝ' ) ;
#186 = DIRECTION ( 'NONE',  ( 1.000000000000000000, 0.000000000000000000, 0.000000000000000000 ) ) ;
#187 = ORIENTED_EDGE ( 'NONE', *, *, #190, .T. ) ;
#188 = PERSON_AND_ORGANIZATION ( #229, #210 ) ;
#189 = ORIENTED_EDGE ( 'NONE', *, *, #158, .F. ) ;
#190 = EDGE_CURVE ( 'NONE', #164, #252, #45, .T. ) ;
#191 = VECTOR ( 'NONE', #118, 1000.000000000000000 ) ;
#192 = APPROVAL_DATE_TIME ( #34, #103 ) ;
#193 = ORIENTED_EDGE ( 'NONE', *, *, #231, .T. ) ;
#194 = APPLICATION_PROTOCOL_DEFINITION ( 'international standard', 'config_control_design', 1994, #168 ) ;
#195 = APPROVAL_PERSON_ORGANIZATION ( #124, #117, #224 ) ;
#196 = DATE_TIME_ROLE ( 'classification_date' ) ;
#197 = CC_DESIGN_PERSON_AND_ORGANIZATION_ASSIGNMENT ( #239, #100, ( #17 ) ) ;
#198 = FACE_OUTER_BOUND ( 'NONE', #33, .T. ) ;
#199 = AXIS2_PLACEMENT_3D ( 'NONE', #203, #155, #41 ) ;
#200 = DATE_AND_TIME ( #241, #173 ) ;
#201 = DIRECTION ( 'NONE',  ( -0.000000000000000000, -0.000000000000000000, -1.000000000000000000 ) ) ;
#202 = DIRECTION ( 'NONE',  ( 0.000000000000000000, 0.000000000000000000, 1.000000000000000000 ) ) ;
#203 = CARTESIAN_POINT ( 'NONE',  ( 0.000000000000000000, 0.000000000000000000, 0.000000000000000000 ) ) ;
#204 = CC_DESIGN_SECURITY_CLASSIFICATION ( #98, ( #17 ) ) ;
#205 = CC_DESIGN_DATE_AND_TIME_ASSIGNMENT ( #92, #223, ( #146 ) ) ;
#206 = CARTESIAN_POINT ( 'NONE',  ( 0.000000000000000000, 0.000000000000000000, 7.000000000000000000 ) ) ;
#207 = APPROVAL_STATUS ( 'not_yet_approved' ) ;
#208 = ORIENTED_EDGE ( 'NONE', *, *, #122, .F. ) ;
#209 = ORIENTED_EDGE ( 'NONE', *, *, #171, .T. ) ;
#210 = ORGANIZATION ( 'NEURÈENÝ', 'NEURÈENÝ', '' ) ;
#211 = ADVANCED_FACE ( 'NONE', ( #102 ), #79, .T. ) ;
#212 = VERTEX_POINT ( 'NONE', #246 ) ;
#213 = CALENDAR_DATE ( 2023, 12, 2 ) ;
#214 = AXIS2_PLACEMENT_3D ( 'NONE', #120, #78, #26 ) ;
#215 = PERSON_AND_ORGANIZATION_ROLE ( 'creator' ) ;
#216 = FACE_OUTER_BOUND ( 'NONE', #232, .T. ) ;
#217 = AXIS2_PLACEMENT_3D ( 'NONE', #57, #104, #4 ) ;
#218 = FACE_OUTER_BOUND ( 'NONE', #167, .T. ) ;
#219 = FACE_OUTER_BOUND ( 'NONE', #126, .T. ) ;
#220 = FACE_OUTER_BOUND ( 'NONE', #230, .T. ) ;
#221 = CIRCLE ( 'NONE', #217, 9.000000000000001776 ) ;
#222 = DIRECTION ( 'NONE',  ( 1.000000000000000000, 0.000000000000000000, 0.000000000000000000 ) ) ;
#223 = DATE_TIME_ROLE ( 'creation_date' ) ;
#224 = APPROVAL_ROLE ( '' ) ;
#225 = ORIENTED_EDGE ( 'NONE', *, *, #112, .T. ) ;
#226 = PRODUCT_DEFINITION_SHAPE ( 'NONE', 'NONE',  #146 ) ;
#227 = ORIENTED_EDGE ( 'NONE', *, *, #190, .F. ) ;
#228 = EDGE_LOOP ( 'NONE', ( #48, #149, #129, #208 ) ) ;
#229 = PERSON ( 'NEURÈENÝ', 'NEURÈENÝ', 'NEURÈENÝ', ('NEURÈENÝ'), ('NEURÈENÝ'), ('NEURÈENÝ') ) ;
#230 = EDGE_LOOP ( 'NONE', ( #189, #248, #29, #36 ) ) ;
#231 = EDGE_CURVE ( 'NONE', #151, #31, #97, .T. ) ;
#232 = EDGE_LOOP ( 'NONE', ( #225, #152 ) ) ;
#233 =( LENGTH_UNIT ( ) NAMED_UNIT ( * ) SI_UNIT ( .MILLI., .METRE. ) );
#234 = DIRECTION ( 'NONE',  ( 0.000000000000000000, 0.000000000000000000, 1.000000000000000000 ) ) ;
#235 = CARTESIAN_POINT ( 'NONE',  ( 0.000000000000000000, 0.000000000000000000, 125.0000000000000000 ) ) ;
#236 = EDGE_CURVE ( 'NONE', #53, #212, #247, .T. ) ;
#237 = AXIS2_PLACEMENT_3D ( 'NONE', #184, #6, #121 ) ;
#238 = CARTESIAN_POINT ( 'NONE',  ( 9.000000000000001776, 1.102182119232617911E-15, 7.000000000000000000 ) ) ;
#239 = PERSON_AND_ORGANIZATION ( #229, #210 ) ;
#240 = DIRECTION ( 'NONE',  ( 0.000000000000000000, 0.000000000000000000, 1.000000000000000000 ) ) ;
#241 = CALENDAR_DATE ( 2023, 12, 2 ) ;
#242 = LINE ( 'NONE', #159, #191 ) ;
#243 = APPROVAL_PERSON_ORGANIZATION ( #90, #103, #131 ) ;
#244 = CARTESIAN_POINT ( 'NONE',  ( 12.00000000000000178, 1.469576158976824144E-15, 7.000000000000000000 ) ) ;
#245 = CIRCLE ( 'NONE', #101, 9.000000000000001776 ) ;
#246 = CARTESIAN_POINT ( 'NONE',  ( -9.000000000000001776, 0.000000000000000000, 7.000000000000000000 ) ) ;
#247 = CIRCLE ( 'NONE', #13, 9.000000000000001776 ) ;
#248 = ORIENTED_EDGE ( 'NONE', *, *, #171, .F. ) ;
#249 = ADVANCED_FACE ( 'NONE', ( #43, #5 ), #105, .T. ) ;
#250 = DIRECTION ( 'NONE',  ( -1.000000000000000000, 0.000000000000000000, 0.000000000000000000 ) ) ;
#251 = CIRCLE ( 'NONE', #80, 12.00000000000000178 ) ;
#252 = VERTEX_POINT ( 'NONE', #2 ) ;
#253 = EDGE_CURVE ( 'NONE', #252, #31, #76, .T. ) ;
#254 = APPROVAL_STATUS ( 'not_yet_approved' ) ;
#255 = ADVANCED_FACE ( 'NONE', ( #219 ), #28, .T. ) ;
ENDSEC;
END-ISO-10303-21;
