ISO-10303-21;
HEADER;
FILE_DESCRIPTION (( 'STEP AP203' ),
    '1' );
FILE_NAME ('7fc2.STEP',
    '2023-02-12T10:48:42',
    ( '' ),
    ( '' ),
    'SwSTEP 2.0',
    'SolidWorks 2019',
    '' );
FILE_SCHEMA (( 'CONFIG_CONTROL_DESIGN' ));
ENDSEC;

DATA;
#1 = ADVANCED_FACE ( 'NONE', ( #190 ), #168, .T. ) ;
#2 = CYLINDRICAL_SURFACE ( 'NONE', #171, 9.000000000000000000 ) ;
#3 = AXIS2_PLACEMENT_3D ( 'NONE', #116, #4, #56 ) ;
#4 = DIRECTION ( 'NONE',  ( 0.000000000000000000, 0.000000000000000000, 1.000000000000000000 ) ) ;
#5 = AXIS2_PLACEMENT_3D ( 'NONE', #133, #193, #211 ) ;
#6 = CARTESIAN_POINT ( 'NONE',  ( -6.000000000000000888, 0.000000000000000000, 500.0000000000000000 ) ) ;
#7 = COORDINATED_UNIVERSAL_TIME_OFFSET ( 1, 0, .AHEAD. ) ;
#8 = ADVANCED_BREP_SHAPE_REPRESENTATION ( '7fc2', ( #34, #179 ), #26 ) ;
#9 = PERSON_AND_ORGANIZATION_ROLE ( 'design_owner' ) ;
#10 = ORIENTED_EDGE ( 'NONE', *, *, #215, .F. ) ;
#11 = CARTESIAN_POINT ( 'NONE',  ( 0.000000000000000000, 0.000000000000000000, 7.000000000000000000 ) ) ;
#12 = CC_DESIGN_PERSON_AND_ORGANIZATION_ASSIGNMENT ( #107, #182, ( #233 ) ) ;
#13 = ORIENTED_EDGE ( 'NONE', *, *, #14, .T. ) ;
#14 = EDGE_CURVE ( 'NONE', #164, #254, #217, .T. ) ;
#15 = CIRCLE ( 'NONE', #191, 9.000000000000000000 ) ;
#16 = DIRECTION ( 'NONE',  ( 0.000000000000000000, 0.000000000000000000, 1.000000000000000000 ) ) ;
#17 = CARTESIAN_POINT ( 'NONE',  ( -9.000000000000000000, 0.000000000000000000, 7.000000000000000000 ) ) ;
#18 = LINE ( 'NONE', #41, #38 ) ;
#19 = ADVANCED_FACE ( 'NONE', ( #64, #137 ), #216, .T. ) ;
#20 =( NAMED_UNIT ( * ) PLANE_ANGLE_UNIT ( ) SI_UNIT ( $, .RADIAN. ) );
#21 = ORIENTED_EDGE ( 'NONE', *, *, #215, .T. ) ;
#22 = APPROVAL ( #141, 'NEURÈENÝ' ) ;
#23 = LOCAL_TIME ( 11, 48, 42.00000000000000000, #7 ) ;
#24 = DIRECTION ( 'NONE',  ( -0.000000000000000000, -0.000000000000000000, -1.000000000000000000 ) ) ;
#25 = ORIENTED_EDGE ( 'NONE', *, *, #231, .F. ) ;
#26 =( GEOMETRIC_REPRESENTATION_CONTEXT ( 3 ) GLOBAL_UNCERTAINTY_ASSIGNED_CONTEXT ( ( #136 ) ) GLOBAL_UNIT_ASSIGNED_CONTEXT ( ( #102, #20, #62 ) ) REPRESENTATION_CONTEXT ( 'NONE', 'WORKASPACE' ) );
#27 = DIRECTION ( 'NONE',  ( -1.000000000000000000, 0.000000000000000000, 0.000000000000000000 ) ) ;
#28 = CIRCLE ( 'NONE', #44, 6.000000000000000888 ) ;
#29 = COORDINATED_UNIVERSAL_TIME_OFFSET ( 1, 0, .AHEAD. ) ;
#30 = APPLICATION_CONTEXT ( 'configuration controlled 3d designs of mechanical parts and assemblies' ) ;
#31 = DIRECTION ( 'NONE',  ( -0.000000000000000000, -0.000000000000000000, -1.000000000000000000 ) ) ;
#32 = CIRCLE ( 'NONE', #247, 9.000000000000000000 ) ;
#33 = CC_DESIGN_APPROVAL ( #93, ( #220 ) ) ;
#34 = MANIFOLD_SOLID_BREP ( 'Pøidat vysunutím3', #196 ) ;
#35 = CARTESIAN_POINT ( 'NONE',  ( 0.000000000000000000, 0.000000000000000000, 0.000000000000000000 ) ) ;
#36 = PLANE ( 'NONE',  #125 ) ;
#37 = CARTESIAN_POINT ( 'NONE',  ( 6.000000000000000888, 7.347880794884120722E-16, 500.0000000000000000 ) ) ;
#38 = VECTOR ( 'NONE', #101, 1000.000000000000000 ) ;
#39 = CARTESIAN_POINT ( 'NONE',  ( 0.000000000000000000, 0.000000000000000000, 7.000000000000000000 ) ) ;
#40 = EDGE_CURVE ( 'NONE', #219, #188, #18, .T. ) ;
#41 = CARTESIAN_POINT ( 'NONE',  ( 6.000000000000000888, 7.347880794884120722E-16, 500.0000000000000000 ) ) ;
#42 = DIRECTION ( 'NONE',  ( 0.000000000000000000, 0.000000000000000000, 1.000000000000000000 ) ) ;
#43 = AXIS2_PLACEMENT_3D ( 'NONE', #213, #57, #235 ) ;
#44 = AXIS2_PLACEMENT_3D ( 'NONE', #195, #83, #153 ) ;
#45 = CARTESIAN_POINT ( 'NONE',  ( 0.000000000000000000, 0.000000000000000000, 0.000000000000000000 ) ) ;
#46 = CC_DESIGN_PERSON_AND_ORGANIZATION_ASSIGNMENT ( #181, #9, ( #87 ) ) ;
#47 = ADVANCED_FACE ( 'NONE', ( #82 ), #121, .T. ) ;
#48 = ORIENTED_EDGE ( 'NONE', *, *, #152, .F. ) ;
#49 = PERSON_AND_ORGANIZATION_ROLE ( 'creator' ) ;
#50 = VERTEX_POINT ( 'NONE', #229 ) ;
#51 = ORIENTED_EDGE ( 'NONE', *, *, #40, .T. ) ;
#52 = DATE_AND_TIME ( #85, #23 ) ;
#53 = DIRECTION ( 'NONE',  ( 1.000000000000000000, 0.000000000000000000, 0.000000000000000000 ) ) ;
#54 = PRODUCT_DEFINITION_SHAPE ( 'NONE', 'NONE',  #212 ) ;
#55 = DIRECTION ( 'NONE',  ( 0.000000000000000000, 0.000000000000000000, 1.000000000000000000 ) ) ;
#56 = DIRECTION ( 'NONE',  ( 1.000000000000000000, 0.000000000000000000, 0.000000000000000000 ) ) ;
#57 = DIRECTION ( 'NONE',  ( -0.000000000000000000, -0.000000000000000000, -1.000000000000000000 ) ) ;
#58 = DIRECTION ( 'NONE',  ( 0.000000000000000000, 0.000000000000000000, 1.000000000000000000 ) ) ;
#59 = APPLICATION_PROTOCOL_DEFINITION ( 'international standard', 'config_control_design', 1994, #253 ) ;
#60 = CARTESIAN_POINT ( 'NONE',  ( 0.000000000000000000, 0.000000000000000000, 7.000000000000000000 ) ) ;
#61 = LOCAL_TIME ( 11, 48, 42.00000000000000000, #127 ) ;
#62 =( NAMED_UNIT ( * ) SI_UNIT ( $, .STERADIAN. ) SOLID_ANGLE_UNIT ( ) );
#63 = DIRECTION ( 'NONE',  ( 1.000000000000000000, 0.000000000000000000, 0.000000000000000000 ) ) ;
#64 = FACE_BOUND ( 'NONE', #248, .T. ) ;
#65 = EDGE_CURVE ( 'NONE', #50, #242, #185, .T. ) ;
#66 = APPROVAL_DATE_TIME ( #255, #93 ) ;
#67 = CC_DESIGN_SECURITY_CLASSIFICATION ( #220, ( #233 ) ) ;
#68 = CARTESIAN_POINT ( 'NONE',  ( 0.000000000000000000, 0.000000000000000000, 0.000000000000000000 ) ) ;
#69 = ORIENTED_EDGE ( 'NONE', *, *, #132, .F. ) ;
#70 = APPROVAL_ROLE ( '' ) ;
#71 = ORIENTED_EDGE ( 'NONE', *, *, #240, .F. ) ;
#72 = DATE_TIME_ROLE ( 'creation_date' ) ;
#73 = CARTESIAN_POINT ( 'NONE',  ( -9.000000000000000000, 0.000000000000000000, 0.000000000000000000 ) ) ;
#74 = ORIENTED_EDGE ( 'NONE', *, *, #40, .F. ) ;
#75 = SHAPE_DEFINITION_REPRESENTATION ( #54, #8 ) ;
#76 = PERSON_AND_ORGANIZATION_ROLE ( 'creator' ) ;
#77 = DIRECTION ( 'NONE',  ( 0.000000000000000000, 0.000000000000000000, 1.000000000000000000 ) ) ;
#78 = APPROVAL_PERSON_ORGANIZATION ( #243, #22, #104 ) ;
#79 = CARTESIAN_POINT ( 'NONE',  ( 0.000000000000000000, 0.000000000000000000, 7.000000000000000000 ) ) ;
#80 = CC_DESIGN_PERSON_AND_ORGANIZATION_ASSIGNMENT ( #223, #49, ( #233 ) ) ;
#81 = CARTESIAN_POINT ( 'NONE',  ( -6.000000000000000888, 0.000000000000000000, 7.000000000000000000 ) ) ;
#82 = FACE_OUTER_BOUND ( 'NONE', #173, .T. ) ;
#83 = DIRECTION ( 'NONE',  ( 0.000000000000000000, 0.000000000000000000, 1.000000000000000000 ) ) ;
#84 = AXIS2_PLACEMENT_3D ( 'NONE', #60, #24, #91 ) ;
#85 = CALENDAR_DATE ( 2023, 12, 2 ) ;
#86 = VERTEX_POINT ( 'NONE', #73 ) ;
#87 = PRODUCT ( '7fc2', '7fc2', '', ( #201 ) ) ;
#88 = ADVANCED_FACE ( 'NONE', ( #113 ), #2, .T. ) ;
#89 = ORIENTED_EDGE ( 'NONE', *, *, #14, .F. ) ;
#90 = APPLICATION_PROTOCOL_DEFINITION ( 'international standard', 'config_control_design', 1994, #30 ) ;
#91 = DIRECTION ( 'NONE',  ( -1.000000000000000000, 0.000000000000000000, 0.000000000000000000 ) ) ;
#92 = COORDINATED_UNIVERSAL_TIME_OFFSET ( 1, 0, .AHEAD. ) ;
#93 = APPROVAL ( #167, 'NEURÈENÝ' ) ;
#94 = ORIENTED_EDGE ( 'NONE', *, *, #224, .F. ) ;
#95 = VECTOR ( 'NONE', #115, 1000.000000000000000 ) ;
#96 = PERSON_AND_ORGANIZATION ( #155, #109 ) ;
#97 = EDGE_CURVE ( 'NONE', #50, #192, #15, .T. ) ;
#98 = FACE_OUTER_BOUND ( 'NONE', #199, .T. ) ;
#99 = LOCAL_TIME ( 11, 48, 42.00000000000000000, #29 ) ;
#100 = DIRECTION ( 'NONE',  ( -0.000000000000000000, -0.000000000000000000, -1.000000000000000000 ) ) ;
#101 = DIRECTION ( 'NONE',  ( -0.000000000000000000, -0.000000000000000000, -1.000000000000000000 ) ) ;
#102 =( LENGTH_UNIT ( ) NAMED_UNIT ( * ) SI_UNIT ( .MILLI., .METRE. ) );
#103 = DIRECTION ( 'NONE',  ( 1.000000000000000000, 0.000000000000000000, -0.000000000000000000 ) ) ;
#104 = APPROVAL_ROLE ( '' ) ;
#105 = PRODUCT_RELATED_PRODUCT_CATEGORY ( 'detail', '', ( #87 ) ) ;
#106 = ORIENTED_EDGE ( 'NONE', *, *, #152, .T. ) ;
#107 = PERSON_AND_ORGANIZATION ( #155, #109 ) ;
#108 = CALENDAR_DATE ( 2023, 12, 2 ) ;
#109 = ORGANIZATION ( 'NEURÈENÝ', 'NEURÈENÝ', '' ) ;
#110 = CALENDAR_DATE ( 2023, 12, 2 ) ;
#111 = DIRECTION ( 'NONE',  ( 0.000000000000000000, 0.000000000000000000, 1.000000000000000000 ) ) ;
#112 = ORIENTED_EDGE ( 'NONE', *, *, #97, .T. ) ;
#113 = FACE_OUTER_BOUND ( 'NONE', #227, .T. ) ;
#114 = EDGE_CURVE ( 'NONE', #254, #188, #237, .T. ) ;
#115 = DIRECTION ( 'NONE',  ( -0.000000000000000000, -0.000000000000000000, -1.000000000000000000 ) ) ;
#116 = CARTESIAN_POINT ( 'NONE',  ( 0.000000000000000000, 0.000000000000000000, 7.000000000000000000 ) ) ;
#117 = VECTOR ( 'NONE', #180, 1000.000000000000000 ) ;
#118 = ADVANCED_FACE ( 'NONE', ( #129 ), #149, .T. ) ;
#119 = CARTESIAN_POINT ( 'NONE',  ( -9.000000000000000000, 0.000000000000000000, 7.000000000000000000 ) ) ;
#120 = DESIGN_CONTEXT ( 'detailed design', #30, 'design' ) ;
#121 = CYLINDRICAL_SURFACE ( 'NONE', #84, 9.000000000000000000 ) ;
#122 = CC_DESIGN_DATE_AND_TIME_ASSIGNMENT ( #249, #72, ( #212 ) ) ;
#123 = AXIS2_PLACEMENT_3D ( 'NONE', #130, #31, #158 ) ;
#124 = AXIS2_PLACEMENT_3D ( 'NONE', #234, #55, #134 ) ;
#125 = AXIS2_PLACEMENT_3D ( 'NONE', #35, #174, #138 ) ;
#126 = EDGE_LOOP ( 'NONE', ( #106, #112 ) ) ;
#127 = COORDINATED_UNIVERSAL_TIME_OFFSET ( 1, 0, .AHEAD. ) ;
#128 = ORIENTED_EDGE ( 'NONE', *, *, #97, .F. ) ;
#129 = FACE_OUTER_BOUND ( 'NONE', #147, .T. ) ;
#130 = CARTESIAN_POINT ( 'NONE',  ( 0.000000000000000000, 0.000000000000000000, 500.0000000000000000 ) ) ;
#131 = EDGE_LOOP ( 'NONE', ( #74, #94, #13, #203 ) ) ;
#132 = EDGE_CURVE ( 'NONE', #242, #86, #184, .T. ) ;
#133 = CARTESIAN_POINT ( 'NONE',  ( 0.000000000000000000, 0.000000000000000000, 7.000000000000000000 ) ) ;
#134 = DIRECTION ( 'NONE',  ( 1.000000000000000000, 0.000000000000000000, 0.000000000000000000 ) ) ;
#135 = CARTESIAN_POINT ( 'NONE',  ( 0.000000000000000000, 0.000000000000000000, 500.0000000000000000 ) ) ;
#136 = UNCERTAINTY_MEASURE_WITH_UNIT (LENGTH_MEASURE( 1.000000000000000082E-05 ), #102, 'distance_accuracy_value', 'NONE');
#137 = FACE_OUTER_BOUND ( 'NONE', #126, .T. ) ;
#138 = DIRECTION ( 'NONE',  ( 1.000000000000000000, 0.000000000000000000, -0.000000000000000000 ) ) ;
#139 = ADVANCED_FACE ( 'NONE', ( #98 ), #36, .F. ) ;
#140 = VECTOR ( 'NONE', #100, 1000.000000000000000 ) ;
#141 = APPROVAL_STATUS ( 'not_yet_approved' ) ;
#142 = CIRCLE ( 'NONE', #238, 6.000000000000000888 ) ;
#143 = CALENDAR_DATE ( 2023, 12, 2 ) ;
#144 = CC_DESIGN_DATE_AND_TIME_ASSIGNMENT ( #252, #208, ( #220 ) ) ;
#145 = ORIENTED_EDGE ( 'NONE', *, *, #65, .T. ) ;
#146 = DATE_AND_TIME ( #202, #61 ) ;
#147 = EDGE_LOOP ( 'NONE', ( #25, #51, #21, #89 ) ) ;
#148 = PERSON_AND_ORGANIZATION ( #155, #109 ) ;
#149 = CYLINDRICAL_SURFACE ( 'NONE', #123, 6.000000000000000888 ) ;
#150 = AXIS2_PLACEMENT_3D ( 'NONE', #68, #226, #209 ) ;
#151 = AXIS2_PLACEMENT_3D ( 'NONE', #39, #58, #198 ) ;
#152 = EDGE_CURVE ( 'NONE', #192, #50, #32, .T. ) ;
#153 = DIRECTION ( 'NONE',  ( 1.000000000000000000, 0.000000000000000000, 0.000000000000000000 ) ) ;
#154 = CC_DESIGN_APPROVAL ( #22, ( #212 ) ) ;
#155 = PERSON ( 'NEURÈENÝ', 'NEURÈENÝ', 'NEURÈENÝ', ('NEURÈENÝ'), ('NEURÈENÝ'), ('NEURÈENÝ') ) ;
#156 = CARTESIAN_POINT ( 'NONE',  ( 0.000000000000000000, 0.000000000000000000, 500.0000000000000000 ) ) ;
#157 = PERSON_AND_ORGANIZATION ( #155, #109 ) ;
#158 = DIRECTION ( 'NONE',  ( -1.000000000000000000, 0.000000000000000000, 0.000000000000000000 ) ) ;
#159 = CC_DESIGN_PERSON_AND_ORGANIZATION_ASSIGNMENT ( #96, #76, ( #212 ) ) ;
#160 = LOCAL_TIME ( 11, 48, 42.00000000000000000, #245 ) ;
#161 = APPROVAL_PERSON_ORGANIZATION ( #148, #93, #228 ) ;
#162 = EDGE_LOOP ( 'NONE', ( #183, #204 ) ) ;
#163 = APPROVAL_DATE_TIME ( #52, #22 ) ;
#164 = VERTEX_POINT ( 'NONE', #169 ) ;
#165 = PERSON_AND_ORGANIZATION_ROLE ( 'classification_officer' ) ;
#166 = ORIENTED_EDGE ( 'NONE', *, *, #65, .F. ) ;
#167 = APPROVAL_STATUS ( 'not_yet_approved' ) ;
#168 = PLANE ( 'NONE',  #178 ) ;
#169 = CARTESIAN_POINT ( 'NONE',  ( -6.000000000000000888, 0.000000000000000000, 500.0000000000000000 ) ) ;
#170 = DIRECTION ( 'NONE',  ( 1.000000000000000000, 0.000000000000000000, 0.000000000000000000 ) ) ;
#171 = AXIS2_PLACEMENT_3D ( 'NONE', #11, #206, #27 ) ;
#172 = CIRCLE ( 'NONE', #3, 6.000000000000000888 ) ;
#173 = EDGE_LOOP ( 'NONE', ( #128, #145, #244, #71 ) ) ;
#174 = DIRECTION ( 'NONE',  ( 0.000000000000000000, 0.000000000000000000, 1.000000000000000000 ) ) ;
#175 = LOCAL_TIME ( 11, 48, 42.00000000000000000, #92 ) ;
#176 = CARTESIAN_POINT ( 'NONE',  ( 9.000000000000000000, 1.102182119232617714E-15, 0.000000000000000000 ) ) ;
#177 = FACE_OUTER_BOUND ( 'NONE', #131, .T. ) ;
#178 = AXIS2_PLACEMENT_3D ( 'NONE', #156, #241, #103 ) ;
#179 = AXIS2_PLACEMENT_3D ( 'NONE', #45, #42, #63 ) ;
#180 = DIRECTION ( 'NONE',  ( -0.000000000000000000, -0.000000000000000000, -1.000000000000000000 ) ) ;
#181 = PERSON_AND_ORGANIZATION ( #155, #109 ) ;
#182 = PERSON_AND_ORGANIZATION_ROLE ( 'design_supplier' ) ;
#183 = ORIENTED_EDGE ( 'NONE', *, *, #224, .T. ) ;
#184 = CIRCLE ( 'NONE', #150, 9.000000000000000000 ) ;
#185 = LINE ( 'NONE', #246, #95 ) ;
#186 = CIRCLE ( 'NONE', #124, 9.000000000000000000 ) ;
#187 = APPROVAL_DATE_TIME ( #146, #200 ) ;
#188 = VERTEX_POINT ( 'NONE', #214 ) ;
#189 = ADVANCED_FACE ( 'NONE', ( #177 ), #239, .T. ) ;
#190 = FACE_OUTER_BOUND ( 'NONE', #162, .T. ) ;
#191 = AXIS2_PLACEMENT_3D ( 'NONE', #250, #111, #53 ) ;
#192 = VERTEX_POINT ( 'NONE', #119 ) ;
#193 = DIRECTION ( 'NONE',  ( 0.000000000000000000, 0.000000000000000000, 1.000000000000000000 ) ) ;
#194 = CC_DESIGN_PERSON_AND_ORGANIZATION_ASSIGNMENT ( #157, #165, ( #220 ) ) ;
#195 = CARTESIAN_POINT ( 'NONE',  ( 0.000000000000000000, 0.000000000000000000, 500.0000000000000000 ) ) ;
#196 = CLOSED_SHELL ( 'NONE', ( #118, #47, #88, #19, #139, #189, #1 ) ) ;
#197 = LINE ( 'NONE', #17, #140 ) ;
#198 = DIRECTION ( 'NONE',  ( 1.000000000000000000, 0.000000000000000000, -0.000000000000000000 ) ) ;
#199 = EDGE_LOOP ( 'NONE', ( #222, #69 ) ) ;
#200 = APPROVAL ( #210, 'NEURÈENÝ' ) ;
#201 = MECHANICAL_CONTEXT ( 'NONE', #253, 'mechanical' ) ;
#202 = CALENDAR_DATE ( 2023, 12, 2 ) ;
#203 = ORIENTED_EDGE ( 'NONE', *, *, #114, .T. ) ;
#204 = ORIENTED_EDGE ( 'NONE', *, *, #231, .T. ) ;
#205 = SECURITY_CLASSIFICATION_LEVEL ( 'unclassified' ) ;
#206 = DIRECTION ( 'NONE',  ( -0.000000000000000000, -0.000000000000000000, -1.000000000000000000 ) ) ;
#207 = CC_DESIGN_APPROVAL ( #200, ( #233 ) ) ;
#208 = DATE_TIME_ROLE ( 'classification_date' ) ;
#209 = DIRECTION ( 'NONE',  ( 1.000000000000000000, 0.000000000000000000, 0.000000000000000000 ) ) ;
#210 = APPROVAL_STATUS ( 'not_yet_approved' ) ;
#211 = DIRECTION ( 'NONE',  ( 1.000000000000000000, 0.000000000000000000, 0.000000000000000000 ) ) ;
#212 = PRODUCT_DEFINITION ( 'NEZNÁMÝ', '', #233, #120 ) ;
#213 = CARTESIAN_POINT ( 'NONE',  ( 0.000000000000000000, 0.000000000000000000, 500.0000000000000000 ) ) ;
#214 = CARTESIAN_POINT ( 'NONE',  ( 6.000000000000000888, 7.347880794884120722E-16, 7.000000000000000000 ) ) ;
#215 = EDGE_CURVE ( 'NONE', #188, #254, #172, .T. ) ;
#216 = PLANE ( 'NONE',  #151 ) ;
#217 = LINE ( 'NONE', #6, #117 ) ;
#218 = APPROVAL_PERSON_ORGANIZATION ( #230, #200, #70 ) ;
#219 = VERTEX_POINT ( 'NONE', #37 ) ;
#220 = SECURITY_CLASSIFICATION ( '', '', #205 ) ;
#221 = ORIENTED_EDGE ( 'NONE', *, *, #240, .T. ) ;
#222 = ORIENTED_EDGE ( 'NONE', *, *, #236, .F. ) ;
#223 = PERSON_AND_ORGANIZATION ( #155, #109 ) ;
#224 = EDGE_CURVE ( 'NONE', #164, #219, #142, .T. ) ;
#225 = ORIENTED_EDGE ( 'NONE', *, *, #114, .F. ) ;
#226 = DIRECTION ( 'NONE',  ( 0.000000000000000000, 0.000000000000000000, 1.000000000000000000 ) ) ;
#227 = EDGE_LOOP ( 'NONE', ( #166, #48, #221, #251 ) ) ;
#228 = APPROVAL_ROLE ( '' ) ;
#229 = CARTESIAN_POINT ( 'NONE',  ( 9.000000000000000000, 1.102182119232617714E-15, 7.000000000000000000 ) ) ;
#230 = PERSON_AND_ORGANIZATION ( #155, #109 ) ;
#231 = EDGE_CURVE ( 'NONE', #219, #164, #28, .T. ) ;
#232 = DIRECTION ( 'NONE',  ( 1.000000000000000000, 0.000000000000000000, 0.000000000000000000 ) ) ;
#233 = PRODUCT_DEFINITION_FORMATION_WITH_SPECIFIED_SOURCE ( 'LIBOVOLNÝ', '', #87, .NOT_KNOWN. ) ;
#234 = CARTESIAN_POINT ( 'NONE',  ( 0.000000000000000000, 0.000000000000000000, 0.000000000000000000 ) ) ;
#235 = DIRECTION ( 'NONE',  ( -1.000000000000000000, 0.000000000000000000, 0.000000000000000000 ) ) ;
#236 = EDGE_CURVE ( 'NONE', #86, #242, #186, .T. ) ;
#237 = CIRCLE ( 'NONE', #5, 6.000000000000000888 ) ;
#238 = AXIS2_PLACEMENT_3D ( 'NONE', #135, #77, #232 ) ;
#239 = CYLINDRICAL_SURFACE ( 'NONE', #43, 6.000000000000000888 ) ;
#240 = EDGE_CURVE ( 'NONE', #192, #86, #197, .T. ) ;
#241 = DIRECTION ( 'NONE',  ( 0.000000000000000000, 0.000000000000000000, 1.000000000000000000 ) ) ;
#242 = VERTEX_POINT ( 'NONE', #176 ) ;
#243 = PERSON_AND_ORGANIZATION ( #155, #109 ) ;
#244 = ORIENTED_EDGE ( 'NONE', *, *, #132, .T. ) ;
#245 = COORDINATED_UNIVERSAL_TIME_OFFSET ( 1, 0, .AHEAD. ) ;
#246 = CARTESIAN_POINT ( 'NONE',  ( 9.000000000000000000, 1.102182119232617714E-15, 7.000000000000000000 ) ) ;
#247 = AXIS2_PLACEMENT_3D ( 'NONE', #79, #16, #170 ) ;
#248 = EDGE_LOOP ( 'NONE', ( #225, #10 ) ) ;
#249 = DATE_AND_TIME ( #108, #175 ) ;
#250 = CARTESIAN_POINT ( 'NONE',  ( 0.000000000000000000, 0.000000000000000000, 7.000000000000000000 ) ) ;
#251 = ORIENTED_EDGE ( 'NONE', *, *, #236, .T. ) ;
#252 = DATE_AND_TIME ( #143, #160 ) ;
#253 = APPLICATION_CONTEXT ( 'configuration controlled 3d designs of mechanical parts and assemblies' ) ;
#254 = VERTEX_POINT ( 'NONE', #81 ) ;
#255 = DATE_AND_TIME ( #110, #99 ) ;
ENDSEC;
END-ISO-10303-21;
