ISO-10303-21;
HEADER;
FILE_DESCRIPTION (( 'STEP AP203' ),
    '1' );
FILE_NAME ('9e7e.STEP',
    '2022-07-07T12:32:20',
    ( '' ),
    ( '' ),
    'SwSTEP 2.0',
    'SolidWorks 2019',
    '' );
FILE_SCHEMA (( 'CONFIG_CONTROL_DESIGN' ));
ENDSEC;

DATA;
#1 = EDGE_CURVE ( 'NONE', #120, #265, #230, .T. ) ;
#2 = AXIS2_PLACEMENT_3D ( 'NONE', #59, #158, #286 ) ;
#3 = CC_DESIGN_APPROVAL ( #180, ( #38 ) ) ;
#4 = ORIENTED_EDGE ( 'NONE', *, *, #284, .T. ) ;
#5 = ORIENTED_EDGE ( 'NONE', *, *, #266, .F. ) ;
#6 = CIRCLE ( 'NONE', #86, 4.299999999999998934 ) ;
#7 = FACE_OUTER_BOUND ( 'NONE', #190, .T. ) ;
#8 = DIRECTION ( 'NONE',  ( -0.000000000000000000, -0.000000000000000000, -1.000000000000000000 ) ) ;
#9 = ORIENTED_EDGE ( 'NONE', *, *, #236, .F. ) ;
#10 = ORIENTED_EDGE ( 'NONE', *, *, #236, .T. ) ;
#11 = DIRECTION ( 'NONE',  ( 1.000000000000000000, 0.000000000000000000, 0.000000000000000000 ) ) ;
#12 = ADVANCED_FACE ( 'NONE', ( #30 ), #248, .T. ) ;
#13 = PLANE ( 'NONE',  #119 ) ;
#14 = AXIS2_PLACEMENT_3D ( 'NONE', #232, #83, #113 ) ;
#15 = DIRECTION ( 'NONE',  ( 0.000000000000000000, 0.000000000000000000, 1.000000000000000000 ) ) ;
#16 = APPROVAL_ROLE ( '' ) ;
#17 = DIRECTION ( 'NONE',  ( 0.000000000000000000, 0.000000000000000000, 1.000000000000000000 ) ) ;
#18 = DATE_AND_TIME ( #208, #227 ) ;
#19 = EDGE_CURVE ( 'NONE', #50, #267, #241, .T. ) ;
#20 = DIRECTION ( 'NONE',  ( 1.000000000000000000, 0.000000000000000000, 0.000000000000000000 ) ) ;
#21 = DIRECTION ( 'NONE',  ( -0.000000000000000000, -0.000000000000000000, -1.000000000000000000 ) ) ;
#22 = APPROVAL_STATUS ( 'not_yet_approved' ) ;
#23 = EDGE_CURVE ( 'NONE', #48, #45, #6, .T. ) ;
#24 = ORIENTED_EDGE ( 'NONE', *, *, #284, .F. ) ;
#25 = CIRCLE ( 'NONE', #107, 7.000000000000000000 ) ;
#26 = ORIENTED_EDGE ( 'NONE', *, *, #19, .T. ) ;
#27 = CYLINDRICAL_SURFACE ( 'NONE', #78, 7.000000000000000000 ) ;
#28 = CARTESIAN_POINT ( 'NONE',  ( -7.000000000000000000, 0.000000000000000000, 0.000000000000000000 ) ) ;
#29 = EDGE_LOOP ( 'NONE', ( #220, #250, #100, #92 ) ) ;
#30 = FACE_OUTER_BOUND ( 'NONE', #139, .T. ) ;
#31 = ADVANCED_FACE ( 'NONE', ( #7 ), #299, .T. ) ;
#32 = DIRECTION ( 'NONE',  ( -0.000000000000000000, -0.000000000000000000, -1.000000000000000000 ) ) ;
#33 = FACE_OUTER_BOUND ( 'NONE', #199, .T. ) ;
#34 = FACE_OUTER_BOUND ( 'NONE', #249, .T. ) ;
#35 = CC_DESIGN_APPROVAL ( #52, ( #169 ) ) ;
#36 = DATE_TIME_ROLE ( 'creation_date' ) ;
#37 = CARTESIAN_POINT ( 'NONE',  ( 0.000000000000000000, 0.000000000000000000, 5.000000000000000000 ) ) ;
#38 = PRODUCT_DEFINITION ( 'NEZNÁMÝ', '', #169, #297 ) ;
#39 = DIRECTION ( 'NONE',  ( -0.000000000000000000, -0.000000000000000000, -1.000000000000000000 ) ) ;
#40 = COORDINATED_UNIVERSAL_TIME_OFFSET ( 1, 0, .AHEAD. ) ;
#41 = PERSON_AND_ORGANIZATION ( #82, #255 ) ;
#42 = ORIENTED_EDGE ( 'NONE', *, *, #23, .T. ) ;
#43 = EDGE_LOOP ( 'NONE', ( #187, #42 ) ) ;
#44 = ORIENTED_EDGE ( 'NONE', *, *, #292, .F. ) ;
#45 = VERTEX_POINT ( 'NONE', #270 ) ;
#46 = CARTESIAN_POINT ( 'NONE',  ( 0.000000000000000000, 0.000000000000000000, 320.0000000000000000 ) ) ;
#47 = AXIS2_PLACEMENT_3D ( 'NONE', #54, #256, #207 ) ;
#48 = VERTEX_POINT ( 'NONE', #166 ) ;
#49 = CIRCLE ( 'NONE', #14, 4.099999999999999645 ) ;
#50 = VERTEX_POINT ( 'NONE', #28 ) ;
#51 = EDGE_LOOP ( 'NONE', ( #247, #290, #4, #26 ) ) ;
#52 = APPROVAL ( #160, 'NEURÈENÝ' ) ;
#53 = DIRECTION ( 'NONE',  ( 0.000000000000000000, 0.000000000000000000, 1.000000000000000000 ) ) ;
#54 = CARTESIAN_POINT ( 'NONE',  ( 0.000000000000000000, 0.000000000000000000, 5.199999999999982414 ) ) ;
#55 = TOROIDAL_SURFACE ( 'NONE', #2, 4.299999999999998934, 0.2000000000000000111 ) ;
#56 = DATE_AND_TIME ( #205, #240 ) ;
#57 = FACE_OUTER_BOUND ( 'NONE', #94, .T. ) ;
#58 =( NAMED_UNIT ( * ) SI_UNIT ( $, .STERADIAN. ) SOLID_ANGLE_UNIT ( ) );
#59 = CARTESIAN_POINT ( 'NONE',  ( 0.000000000000000000, 0.000000000000000000, 5.199999999999982414 ) ) ;
#60 = DATE_TIME_ROLE ( 'classification_date' ) ;
#61 = MECHANICAL_CONTEXT ( 'NONE', #126, 'mechanical' ) ;
#62 =( GEOMETRIC_REPRESENTATION_CONTEXT ( 3 ) GLOBAL_UNCERTAINTY_ASSIGNED_CONTEXT ( ( #98 ) ) GLOBAL_UNIT_ASSIGNED_CONTEXT ( ( #90, #211, #58 ) ) REPRESENTATION_CONTEXT ( 'NONE', 'WORKASPACE' ) );
#63 = CC_DESIGN_PERSON_AND_ORGANIZATION_ASSIGNMENT ( #89, #138, ( #157 ) ) ;
#64 = AXIS2_PLACEMENT_3D ( 'NONE', #183, #15, #108 ) ;
#65 = ORIENTED_EDGE ( 'NONE', *, *, #88, .F. ) ;
#66 = ORIENTED_EDGE ( 'NONE', *, *, #149, .T. ) ;
#67 = PRODUCT_RELATED_PRODUCT_CATEGORY ( 'detail', '', ( #216 ) ) ;
#68 = AXIS2_PLACEMENT_3D ( 'NONE', #196, #32, #75 ) ;
#69 = ORIENTED_EDGE ( 'NONE', *, *, #19, .F. ) ;
#70 = DIRECTION ( 'NONE',  ( 0.000000000000000000, 0.000000000000000000, 1.000000000000000000 ) ) ;
#71 = CIRCLE ( 'NONE', #127, 4.099999999999999645 ) ;
#72 = DIRECTION ( 'NONE',  ( 0.000000000000000000, 0.000000000000000000, 1.000000000000000000 ) ) ;
#73 = CARTESIAN_POINT ( 'NONE',  ( 0.000000000000000000, 0.000000000000000000, 0.000000000000000000 ) ) ;
#74 = EDGE_CURVE ( 'NONE', #162, #146, #124, .T. ) ;
#75 = DIRECTION ( 'NONE',  ( -1.000000000000000000, 0.000000000000000000, 0.000000000000000000 ) ) ;
#76 = DIRECTION ( 'NONE',  ( 1.000000000000000000, 0.000000000000000000, 0.000000000000000000 ) ) ;
#77 = CARTESIAN_POINT ( 'NONE',  ( 4.299999999999998934, 0.000000000000000000, 5.199999999999982414 ) ) ;
#78 = AXIS2_PLACEMENT_3D ( 'NONE', #193, #202, #165 ) ;
#79 = COORDINATED_UNIVERSAL_TIME_OFFSET ( 1, 0, .AHEAD. ) ;
#80 = DIRECTION ( 'NONE',  ( 1.224646799147353207E-16, 1.000000000000000000, -0.000000000000000000 ) ) ;
#81 = CALENDAR_DATE ( 2022, 7, 7 ) ;
#82 = PERSON ( 'NEURÈENÝ', 'NEURÈENÝ', 'NEURÈENÝ', ('NEURÈENÝ'), ('NEURÈENÝ'), ('NEURÈENÝ') ) ;
#83 = DIRECTION ( 'NONE',  ( 0.000000000000000000, 0.000000000000000000, 1.000000000000000000 ) ) ;
#84 = CIRCLE ( 'NONE', #246, 0.1999999999999996503 ) ;
#85 = DIRECTION ( 'NONE',  ( 1.000000000000000000, 0.000000000000000000, 0.000000000000000000 ) ) ;
#86 = AXIS2_PLACEMENT_3D ( 'NONE', #128, #102, #201 ) ;
#87 = FACE_OUTER_BOUND ( 'NONE', #223, .T. ) ;
#88 = EDGE_CURVE ( 'NONE', #267, #50, #251, .T. ) ;
#89 = PERSON_AND_ORGANIZATION ( #82, #255 ) ;
#90 =( LENGTH_UNIT ( ) NAMED_UNIT ( * ) SI_UNIT ( .MILLI., .METRE. ) );
#91 = AXIS2_PLACEMENT_3D ( 'NONE', #116, #300, #76 ) ;
#92 = ORIENTED_EDGE ( 'NONE', *, *, #74, .F. ) ;
#93 = ADVANCED_FACE ( 'NONE', ( #151 ), #170, .T. ) ;
#94 = EDGE_LOOP ( 'NONE', ( #9, #191, #192, #298 ) ) ;
#95 = AXIS2_PLACEMENT_3D ( 'NONE', #218, #8, #103 ) ;
#96 = CARTESIAN_POINT ( 'NONE',  ( 0.000000000000000000, 0.000000000000000000, 0.000000000000000000 ) ) ;
#97 = CARTESIAN_POINT ( 'NONE',  ( 7.000000000000000000, 8.572527594031473190E-16, 5.000000000000000000 ) ) ;
#98 = UNCERTAINTY_MEASURE_WITH_UNIT (LENGTH_MEASURE( 1.000000000000000082E-05 ), #90, 'distance_accuracy_value', 'NONE');
#99 = CIRCLE ( 'NONE', #91, 4.099999999999999645 ) ;
#100 = ORIENTED_EDGE ( 'NONE', *, *, #269, .T. ) ;
#101 = AXIS2_PLACEMENT_3D ( 'NONE', #215, #171, #225 ) ;
#102 = DIRECTION ( 'NONE',  ( -0.000000000000000000, -0.000000000000000000, -1.000000000000000000 ) ) ;
#103 = DIRECTION ( 'NONE',  ( -1.000000000000000000, 0.000000000000000000, 0.000000000000000000 ) ) ;
#104 = DIRECTION ( 'NONE',  ( 0.000000000000000000, 0.000000000000000000, 1.000000000000000000 ) ) ;
#105 = APPROVAL_PERSON_ORGANIZATION ( #254, #180, #281 ) ;
#106 = ADVANCED_FACE ( 'NONE', ( #123 ), #27, .T. ) ;
#107 = AXIS2_PLACEMENT_3D ( 'NONE', #137, #104, #283 ) ;
#108 = DIRECTION ( 'NONE',  ( 1.000000000000000000, 0.000000000000000000, -0.000000000000000000 ) ) ;
#109 = SHAPE_DEFINITION_REPRESENTATION ( #274, #268 ) ;
#110 = PLANE ( 'NONE',  #64 ) ;
#111 = COORDINATED_UNIVERSAL_TIME_OFFSET ( 1, 0, .AHEAD. ) ;
#112 = EDGE_CURVE ( 'NONE', #242, #162, #175, .T. ) ;
#113 = DIRECTION ( 'NONE',  ( 1.000000000000000000, 0.000000000000000000, 0.000000000000000000 ) ) ;
#114 = PERSON_AND_ORGANIZATION ( #82, #255 ) ;
#115 = AXIS2_PLACEMENT_3D ( 'NONE', #96, #53, #11 ) ;
#116 = CARTESIAN_POINT ( 'NONE',  ( 0.000000000000000000, 0.000000000000000000, 320.0000000000000000 ) ) ;
#117 = COORDINATED_UNIVERSAL_TIME_OFFSET ( 1, 0, .AHEAD. ) ;
#118 = LOCAL_TIME ( 14, 32, 20.00000000000000000, #40 ) ;
#119 = AXIS2_PLACEMENT_3D ( 'NONE', #280, #17, #179 ) ;
#120 = VERTEX_POINT ( 'NONE', #97 ) ;
#121 = ORIENTED_EDGE ( 'NONE', *, *, #131, .T. ) ;
#122 = CC_DESIGN_PERSON_AND_ORGANIZATION_ASSIGNMENT ( #114, #306, ( #169 ) ) ;
#123 = FACE_OUTER_BOUND ( 'NONE', #51, .T. ) ;
#124 = LINE ( 'NONE', #173, #210 ) ;
#125 = ORIENTED_EDGE ( 'NONE', *, *, #1, .F. ) ;
#126 = APPLICATION_CONTEXT ( 'configuration controlled 3d designs of mechanical parts and assemblies' ) ;
#127 = AXIS2_PLACEMENT_3D ( 'NONE', #295, #209, #301 ) ;
#128 = CARTESIAN_POINT ( 'NONE',  ( 0.000000000000000000, 0.000000000000000000, 5.000000000000000000 ) ) ;
#129 = CARTESIAN_POINT ( 'NONE',  ( 0.000000000000000000, 0.000000000000000000, 5.000000000000000000 ) ) ;
#130 = CARTESIAN_POINT ( 'NONE',  ( -7.000000000000000000, 0.000000000000000000, 5.000000000000000000 ) ) ;
#131 = EDGE_CURVE ( 'NONE', #146, #148, #71, .T. ) ;
#132 = VECTOR ( 'NONE', #176, 1000.000000000000000 ) ;
#133 = PERSON_AND_ORGANIZATION_ROLE ( 'creator' ) ;
#134 = CARTESIAN_POINT ( 'NONE',  ( 7.000000000000000000, 8.572527594031473190E-16, 0.000000000000000000 ) ) ;
#135 = CARTESIAN_POINT ( 'NONE',  ( -7.000000000000000000, 0.000000000000000000, 5.000000000000000000 ) ) ;
#136 = APPROVAL_DATE_TIME ( #287, #52 ) ;
#137 = CARTESIAN_POINT ( 'NONE',  ( 0.000000000000000000, 0.000000000000000000, 5.000000000000000000 ) ) ;
#138 = PERSON_AND_ORGANIZATION_ROLE ( 'classification_officer' ) ;
#139 = EDGE_LOOP ( 'NONE', ( #125, #143, #273, #24 ) ) ;
#140 = PERSON_AND_ORGANIZATION ( #82, #255 ) ;
#141 = ADVANCED_FACE ( 'NONE', ( #87 ), #13, .F. ) ;
#142 = ORIENTED_EDGE ( 'NONE', *, *, #112, .T. ) ;
#143 = ORIENTED_EDGE ( 'NONE', *, *, #217, .T. ) ;
#144 = DIRECTION ( 'NONE',  ( 0.000000000000000000, 0.000000000000000000, 1.000000000000000000 ) ) ;
#145 = TOROIDAL_SURFACE ( 'NONE', #47, 4.299999999999998934, 0.2000000000000000111 ) ;
#146 = VERTEX_POINT ( 'NONE', #253 ) ;
#147 = CLOSED_SHELL ( 'NONE', ( #186, #93, #12, #106, #213, #141, #31, #222, #168 ) ) ;
#148 = VERTEX_POINT ( 'NONE', #204 ) ;
#149 = EDGE_CURVE ( 'NONE', #265, #120, #25, .T. ) ;
#150 = ORIENTED_EDGE ( 'NONE', *, *, #1, .T. ) ;
#151 = FACE_OUTER_BOUND ( 'NONE', #29, .T. ) ;
#152 = CC_DESIGN_PERSON_AND_ORGANIZATION_ASSIGNMENT ( #258, #133, ( #169 ) ) ;
#153 = CARTESIAN_POINT ( 'NONE',  ( 0.000000000000000000, 0.000000000000000000, 5.000000000000000000 ) ) ;
#154 = FACE_BOUND ( 'NONE', #43, .T. ) ;
#155 = DIRECTION ( 'NONE',  ( 0.000000000000000000, 0.000000000000000000, 1.000000000000000000 ) ) ;
#156 = CARTESIAN_POINT ( 'NONE',  ( 4.099999999999999645, 5.021051876504147385E-16, 320.0000000000000000 ) ) ;
#157 = SECURITY_CLASSIFICATION ( '', '', #288 ) ;
#158 = DIRECTION ( 'NONE',  ( 0.000000000000000000, 0.000000000000000000, 1.000000000000000000 ) ) ;
#159 = CARTESIAN_POINT ( 'NONE',  ( 7.000000000000000000, 8.572527594031473190E-16, 5.000000000000000000 ) ) ;
#160 = APPROVAL_STATUS ( 'not_yet_approved' ) ;
#161 = EDGE_LOOP ( 'NONE', ( #164, #142 ) ) ;
#162 = VERTEX_POINT ( 'NONE', #252 ) ;
#163 = CC_DESIGN_DATE_AND_TIME_ASSIGNMENT ( #239, #36, ( #38 ) ) ;
#164 = ORIENTED_EDGE ( 'NONE', *, *, #292, .T. ) ;
#165 = DIRECTION ( 'NONE',  ( -1.000000000000000000, 0.000000000000000000, 0.000000000000000000 ) ) ;
#166 = CARTESIAN_POINT ( 'NONE',  ( -4.299999999999998934, 5.265981236333617484E-16, 4.999999999999991118 ) ) ;
#167 = VECTOR ( 'NONE', #39, 1000.000000000000000 ) ;
#168 = ADVANCED_FACE ( 'NONE', ( #57 ), #145, .F. ) ;
#169 = PRODUCT_DEFINITION_FORMATION_WITH_SPECIFIED_SOURCE ( 'LIBOVOLNÝ', '', #216, .NOT_KNOWN. ) ;
#170 = CYLINDRICAL_SURFACE ( 'NONE', #95, 4.099999999999999645 ) ;
#171 = DIRECTION ( 'NONE',  ( -0.000000000000000000, -0.000000000000000000, -1.000000000000000000 ) ) ;
#172 = MANIFOLD_SOLID_BREP ( 'Zaoblit1', #147 ) ;
#173 = CARTESIAN_POINT ( 'NONE',  ( -4.099999999999999645, 0.000000000000000000, 320.0000000000000000 ) ) ;
#174 = CC_DESIGN_PERSON_AND_ORGANIZATION_ASSIGNMENT ( #140, #185, ( #216 ) ) ;
#175 = CIRCLE ( 'NONE', #195, 4.099999999999999645 ) ;
#176 = DIRECTION ( 'NONE',  ( -0.000000000000000000, -0.000000000000000000, -1.000000000000000000 ) ) ;
#177 = DIRECTION ( 'NONE',  ( -1.000000000000000000, 1.224646799147353454E-16, 0.000000000000000000 ) ) ;
#178 = DATE_AND_TIME ( #231, #197 ) ;
#179 = DIRECTION ( 'NONE',  ( 1.000000000000000000, 0.000000000000000000, -0.000000000000000000 ) ) ;
#180 = APPROVAL ( #303, 'NEURÈENÝ' ) ;
#181 = CC_DESIGN_APPROVAL ( #189, ( #157 ) ) ;
#182 = PERSON_AND_ORGANIZATION_ROLE ( 'creator' ) ;
#183 = CARTESIAN_POINT ( 'NONE',  ( 0.000000000000000000, 0.000000000000000000, 320.0000000000000000 ) ) ;
#184 = COORDINATED_UNIVERSAL_TIME_OFFSET ( 1, 0, .AHEAD. ) ;
#185 = PERSON_AND_ORGANIZATION_ROLE ( 'design_owner' ) ;
#186 = ADVANCED_FACE ( 'NONE', ( #33 ), #55, .F. ) ;
#187 = ORIENTED_EDGE ( 'NONE', *, *, #266, .T. ) ;
#188 = CIRCLE ( 'NONE', #282, 4.299999999999998934 ) ;
#189 = APPROVAL ( #22, 'NEURÈENÝ' ) ;
#190 = EDGE_LOOP ( 'NONE', ( #263, #44, #271, #121 ) ) ;
#191 = ORIENTED_EDGE ( 'NONE', *, *, #269, .F. ) ;
#192 = ORIENTED_EDGE ( 'NONE', *, *, #194, .T. ) ;
#193 = CARTESIAN_POINT ( 'NONE',  ( 0.000000000000000000, 0.000000000000000000, 5.000000000000000000 ) ) ;
#194 = EDGE_CURVE ( 'NONE', #148, #45, #84, .T. ) ;
#195 = AXIS2_PLACEMENT_3D ( 'NONE', #46, #144, #294 ) ;
#196 = CARTESIAN_POINT ( 'NONE',  ( 0.000000000000000000, 0.000000000000000000, 320.0000000000000000 ) ) ;
#197 = LOCAL_TIME ( 14, 32, 20.00000000000000000, #184 ) ;
#198 = CIRCLE ( 'NONE', #289, 0.1999999999999996503 ) ;
#199 = EDGE_LOOP ( 'NONE', ( #214, #10, #5, #293 ) ) ;
#200 = AXIS2_PLACEMENT_3D ( 'NONE', #129, #72, #244 ) ;
#201 = DIRECTION ( 'NONE',  ( 1.000000000000000000, 0.000000000000000000, 0.000000000000000000 ) ) ;
#202 = DIRECTION ( 'NONE',  ( -0.000000000000000000, -0.000000000000000000, -1.000000000000000000 ) ) ;
#203 = DIRECTION ( 'NONE',  ( 0.000000000000000000, 0.000000000000000000, 1.000000000000000000 ) ) ;
#204 = CARTESIAN_POINT ( 'NONE',  ( 4.099999999999999645, 5.021051876504147385E-16, 5.199999999999982414 ) ) ;
#205 = CALENDAR_DATE ( 2022, 7, 7 ) ;
#206 = EDGE_CURVE ( 'NONE', #242, #148, #226, .T. ) ;
#207 = DIRECTION ( 'NONE',  ( 1.000000000000000000, 0.000000000000000000, 0.000000000000000000 ) ) ;
#208 = CALENDAR_DATE ( 2022, 7, 7 ) ;
#209 = DIRECTION ( 'NONE',  ( 0.000000000000000000, 0.000000000000000000, 1.000000000000000000 ) ) ;
#210 = VECTOR ( 'NONE', #276, 1000.000000000000000 ) ;
#211 =( NAMED_UNIT ( * ) PLANE_ANGLE_UNIT ( ) SI_UNIT ( $, .RADIAN. ) );
#212 = APPROVAL_ROLE ( '' ) ;
#213 = ADVANCED_FACE ( 'NONE', ( #154, #34 ), #302, .T. ) ;
#214 = ORIENTED_EDGE ( 'NONE', *, *, #131, .F. ) ;
#215 = CARTESIAN_POINT ( 'NONE',  ( 0.000000000000000000, 0.000000000000000000, 5.000000000000000000 ) ) ;
#216 = PRODUCT ( '9e7e', '9e7e', '', ( #61 ) ) ;
#217 = EDGE_CURVE ( 'NONE', #120, #267, #304, .T. ) ;
#218 = CARTESIAN_POINT ( 'NONE',  ( 0.000000000000000000, 0.000000000000000000, 320.0000000000000000 ) ) ;
#219 = CC_DESIGN_DATE_AND_TIME_ASSIGNMENT ( #178, #60, ( #157 ) ) ;
#220 = ORIENTED_EDGE ( 'NONE', *, *, #112, .F. ) ;
#221 = CC_DESIGN_SECURITY_CLASSIFICATION ( #157, ( #169 ) ) ;
#222 = ADVANCED_FACE ( 'NONE', ( #277 ), #110, .T. ) ;
#223 = EDGE_LOOP ( 'NONE', ( #69, #65 ) ) ;
#224 = APPLICATION_CONTEXT ( 'configuration controlled 3d designs of mechanical parts and assemblies' ) ;
#225 = DIRECTION ( 'NONE',  ( -1.000000000000000000, 0.000000000000000000, 0.000000000000000000 ) ) ;
#226 = LINE ( 'NONE', #278, #132 ) ;
#227 = LOCAL_TIME ( 14, 32, 20.00000000000000000, #79 ) ;
#228 = DIRECTION ( 'NONE',  ( 1.000000000000000000, 0.000000000000000000, -0.000000000000000000 ) ) ;
#229 = VECTOR ( 'NONE', #21, 1000.000000000000000 ) ;
#230 = CIRCLE ( 'NONE', #200, 7.000000000000000000 ) ;
#231 = CALENDAR_DATE ( 2022, 7, 7 ) ;
#232 = CARTESIAN_POINT ( 'NONE',  ( 0.000000000000000000, 0.000000000000000000, 5.199999999999982414 ) ) ;
#233 = APPLICATION_PROTOCOL_DEFINITION ( 'international standard', 'config_control_design', 1994, #126 ) ;
#234 = DIRECTION ( 'NONE',  ( -0.000000000000000000, -0.000000000000000000, -1.000000000000000000 ) ) ;
#235 = APPROVAL_DATE_TIME ( #18, #180 ) ;
#236 = EDGE_CURVE ( 'NONE', #146, #48, #198, .T. ) ;
#237 = LINE ( 'NONE', #130, #229 ) ;
#238 = PERSON_AND_ORGANIZATION ( #82, #255 ) ;
#239 = DATE_AND_TIME ( #264, #118 ) ;
#240 = LOCAL_TIME ( 14, 32, 20.00000000000000000, #117 ) ;
#241 = CIRCLE ( 'NONE', #285, 7.000000000000000000 ) ;
#242 = VERTEX_POINT ( 'NONE', #156 ) ;
#243 = CC_DESIGN_PERSON_AND_ORGANIZATION_ASSIGNMENT ( #260, #182, ( #38 ) ) ;
#244 = DIRECTION ( 'NONE',  ( 1.000000000000000000, 0.000000000000000000, 0.000000000000000000 ) ) ;
#245 = APPROVAL_PERSON_ORGANIZATION ( #238, #189, #16 ) ;
#246 = AXIS2_PLACEMENT_3D ( 'NONE', #77, #259, #305 ) ;
#247 = ORIENTED_EDGE ( 'NONE', *, *, #217, .F. ) ;
#248 = CYLINDRICAL_SURFACE ( 'NONE', #101, 7.000000000000000000 ) ;
#249 = EDGE_LOOP ( 'NONE', ( #66, #150 ) ) ;
#250 = ORIENTED_EDGE ( 'NONE', *, *, #206, .T. ) ;
#251 = CIRCLE ( 'NONE', #115, 7.000000000000000000 ) ;
#252 = CARTESIAN_POINT ( 'NONE',  ( -4.099999999999999645, 0.000000000000000000, 320.0000000000000000 ) ) ;
#253 = CARTESIAN_POINT ( 'NONE',  ( -4.099999999999999645, 0.000000000000000000, 5.199999999999982414 ) ) ;
#254 = PERSON_AND_ORGANIZATION ( #82, #255 ) ;
#255 = ORGANIZATION ( 'NEURÈENÝ', 'NEURÈENÝ', '' ) ;
#256 = DIRECTION ( 'NONE',  ( 0.000000000000000000, 0.000000000000000000, 1.000000000000000000 ) ) ;
#257 = AXIS2_PLACEMENT_3D ( 'NONE', #153, #203, #228 ) ;
#258 = PERSON_AND_ORGANIZATION ( #82, #255 ) ;
#259 = DIRECTION ( 'NONE',  ( 0.000000000000000000, -1.000000000000000000, 0.000000000000000000 ) ) ;
#260 = PERSON_AND_ORGANIZATION ( #82, #255 ) ;
#261 = CARTESIAN_POINT ( 'NONE',  ( -4.299999999999998934, 5.265981236333617484E-16, 5.199999999999982414 ) ) ;
#262 = APPLICATION_PROTOCOL_DEFINITION ( 'international standard', 'config_control_design', 1994, #224 ) ;
#263 = ORIENTED_EDGE ( 'NONE', *, *, #206, .F. ) ;
#264 = CALENDAR_DATE ( 2022, 7, 7 ) ;
#265 = VERTEX_POINT ( 'NONE', #135 ) ;
#266 = EDGE_CURVE ( 'NONE', #45, #48, #188, .T. ) ;
#267 = VERTEX_POINT ( 'NONE', #134 ) ;
#268 = ADVANCED_BREP_SHAPE_REPRESENTATION ( '9e7e', ( #172, #291 ), #62 ) ;
#269 = EDGE_CURVE ( 'NONE', #148, #146, #49, .T. ) ;
#270 = CARTESIAN_POINT ( 'NONE',  ( 4.299999999999998934, 0.000000000000000000, 4.999999999999991118 ) ) ;
#271 = ORIENTED_EDGE ( 'NONE', *, *, #74, .T. ) ;
#272 = APPROVAL_PERSON_ORGANIZATION ( #41, #52, #212 ) ;
#273 = ORIENTED_EDGE ( 'NONE', *, *, #88, .T. ) ;
#274 = PRODUCT_DEFINITION_SHAPE ( 'NONE', 'NONE',  #38 ) ;
#275 = DIRECTION ( 'NONE',  ( 1.000000000000000000, 0.000000000000000000, 0.000000000000000000 ) ) ;
#276 = DIRECTION ( 'NONE',  ( -0.000000000000000000, -0.000000000000000000, -1.000000000000000000 ) ) ;
#277 = FACE_OUTER_BOUND ( 'NONE', #161, .T. ) ;
#278 = CARTESIAN_POINT ( 'NONE',  ( 4.099999999999999645, 5.021051876504147385E-16, 320.0000000000000000 ) ) ;
#279 = CARTESIAN_POINT ( 'NONE',  ( 0.000000000000000000, 0.000000000000000000, 0.000000000000000000 ) ) ;
#280 = CARTESIAN_POINT ( 'NONE',  ( 0.000000000000000000, 0.000000000000000000, 0.000000000000000000 ) ) ;
#281 = APPROVAL_ROLE ( '' ) ;
#282 = AXIS2_PLACEMENT_3D ( 'NONE', #37, #234, #20 ) ;
#283 = DIRECTION ( 'NONE',  ( 1.000000000000000000, 0.000000000000000000, 0.000000000000000000 ) ) ;
#284 = EDGE_CURVE ( 'NONE', #265, #50, #237, .T. ) ;
#285 = AXIS2_PLACEMENT_3D ( 'NONE', #73, #70, #275 ) ;
#286 = DIRECTION ( 'NONE',  ( 1.000000000000000000, 0.000000000000000000, 0.000000000000000000 ) ) ;
#287 = DATE_AND_TIME ( #81, #296 ) ;
#288 = SECURITY_CLASSIFICATION_LEVEL ( 'unclassified' ) ;
#289 = AXIS2_PLACEMENT_3D ( 'NONE', #261, #80, #177 ) ;
#290 = ORIENTED_EDGE ( 'NONE', *, *, #149, .F. ) ;
#291 = AXIS2_PLACEMENT_3D ( 'NONE', #279, #155, #85 ) ;
#292 = EDGE_CURVE ( 'NONE', #162, #242, #99, .T. ) ;
#293 = ORIENTED_EDGE ( 'NONE', *, *, #194, .F. ) ;
#294 = DIRECTION ( 'NONE',  ( 1.000000000000000000, 0.000000000000000000, 0.000000000000000000 ) ) ;
#295 = CARTESIAN_POINT ( 'NONE',  ( 0.000000000000000000, 0.000000000000000000, 5.199999999999982414 ) ) ;
#296 = LOCAL_TIME ( 14, 32, 20.00000000000000000, #111 ) ;
#297 = DESIGN_CONTEXT ( 'detailed design', #224, 'design' ) ;
#298 = ORIENTED_EDGE ( 'NONE', *, *, #23, .F. ) ;
#299 = CYLINDRICAL_SURFACE ( 'NONE', #68, 4.099999999999999645 ) ;
#300 = DIRECTION ( 'NONE',  ( 0.000000000000000000, 0.000000000000000000, 1.000000000000000000 ) ) ;
#301 = DIRECTION ( 'NONE',  ( 1.000000000000000000, 0.000000000000000000, 0.000000000000000000 ) ) ;
#302 = PLANE ( 'NONE',  #257 ) ;
#303 = APPROVAL_STATUS ( 'not_yet_approved' ) ;
#304 = LINE ( 'NONE', #159, #167 ) ;
#305 = DIRECTION ( 'NONE',  ( 0.000000000000000000, 0.000000000000000000, -1.000000000000000000 ) ) ;
#306 = PERSON_AND_ORGANIZATION_ROLE ( 'design_supplier' ) ;
#307 = APPROVAL_DATE_TIME ( #56, #189 ) ;
ENDSEC;
END-ISO-10303-21;
