ISO-10303-21;
HEADER;
FILE_DESCRIPTION (( 'STEP AP203' ),
    '1' );
FILE_NAME ('e26d.STEP',
    '2022-07-07T12:36:01',
    ( '' ),
    ( '' ),
    'SwSTEP 2.0',
    'SolidWorks 2019',
    '' );
FILE_SCHEMA (( 'CONFIG_CONTROL_DESIGN' ));
ENDSEC;

DATA;
#1 = DIRECTION ( 'NONE',  ( 0.000000000000000000, 0.000000000000000000, 1.000000000000000000 ) ) ;
#2 = PLANE ( 'NONE',  #232 ) ;
#3 = CYLINDRICAL_SURFACE ( 'NONE', #251, 6.000000000000000888 ) ;
#4 = DIRECTION ( 'NONE',  ( 1.000000000000000000, 0.000000000000000000, 0.000000000000000000 ) ) ;
#5 = APPROVAL ( #183, 'NEURÈENÝ' ) ;
#6 = CARTESIAN_POINT ( 'NONE',  ( 0.000000000000000000, 0.000000000000000000, 5.200000000000009948 ) ) ;
#7 = PERSON_AND_ORGANIZATION ( #112, #236 ) ;
#8 = ADVANCED_FACE ( 'NONE', ( #122 ), #97, .T. ) ;
#9 = DATE_AND_TIME ( #271, #103 ) ;
#10 = PERSON_AND_ORGANIZATION ( #112, #236 ) ;
#11 = APPROVAL_ROLE ( '' ) ;
#12 = AXIS2_PLACEMENT_3D ( 'NONE', #23, #173, #257 ) ;
#13 = EDGE_CURVE ( 'NONE', #275, #149, #294, .T. ) ;
#14 = ORIENTED_EDGE ( 'NONE', *, *, #263, .F. ) ;
#15 = ORIENTED_EDGE ( 'NONE', *, *, #207, .T. ) ;
#16 = APPROVAL ( #270, 'NEURÈENÝ' ) ;
#17 =( LENGTH_UNIT ( ) NAMED_UNIT ( * ) SI_UNIT ( .MILLI., .METRE. ) );
#18 = ORIENTED_EDGE ( 'NONE', *, *, #205, .F. ) ;
#19 = DIRECTION ( 'NONE',  ( 1.000000000000000000, 0.000000000000000000, 0.000000000000000000 ) ) ;
#20 = ORIENTED_EDGE ( 'NONE', *, *, #207, .F. ) ;
#21 = CIRCLE ( 'NONE', #227, 3.750000000000000000 ) ;
#22 = EDGE_LOOP ( 'NONE', ( #191, #81, #170, #279 ) ) ;
#23 = CARTESIAN_POINT ( 'NONE',  ( 0.000000000000000000, 0.000000000000000000, 165.0000000000000000 ) ) ;
#24 = FACE_OUTER_BOUND ( 'NONE', #307, .T. ) ;
#25 = DIRECTION ( 'NONE',  ( -0.000000000000000000, -0.000000000000000000, -1.000000000000000000 ) ) ;
#26 = ORIENTED_EDGE ( 'NONE', *, *, #145, .T. ) ;
#27 = AXIS2_PLACEMENT_3D ( 'NONE', #241, #124, #219 ) ;
#28 = DIRECTION ( 'NONE',  ( -0.000000000000000000, -0.000000000000000000, -1.000000000000000000 ) ) ;
#29 = CARTESIAN_POINT ( 'NONE',  ( 3.949999999999999734, 0.000000000000000000, 5.200000000000009948 ) ) ;
#30 = PRODUCT_DEFINITION_SHAPE ( 'NONE', 'NONE',  #297 ) ;
#31 = PERSON_AND_ORGANIZATION_ROLE ( 'classification_officer' ) ;
#32 = CC_DESIGN_DATE_AND_TIME_ASSIGNMENT ( #296, #111, ( #297 ) ) ;
#33 = CIRCLE ( 'NONE', #137, 3.750000000000000000 ) ;
#34 = LOCAL_TIME ( 14, 36, 1.000000000000000000, #134 ) ;
#35 = MECHANICAL_CONTEXT ( 'NONE', #51, 'mechanical' ) ;
#36 = ADVANCED_FACE ( 'NONE', ( #121 ), #3, .T. ) ;
#37 = MANIFOLD_SOLID_BREP ( 'Zaoblit1', #83 ) ;
#38 = PERSON_AND_ORGANIZATION_ROLE ( 'creator' ) ;
#39 = EDGE_CURVE ( 'NONE', #99, #256, #44, .T. ) ;
#40 =( NAMED_UNIT ( * ) PLANE_ANGLE_UNIT ( ) SI_UNIT ( $, .RADIAN. ) );
#41 = VERTEX_POINT ( 'NONE', #77 ) ;
#42 = VERTEX_POINT ( 'NONE', #260 ) ;
#43 = DIRECTION ( 'NONE',  ( 0.000000000000000000, 0.000000000000000000, 1.000000000000000000 ) ) ;
#44 = CIRCLE ( 'NONE', #128, 0.1999999999999996503 ) ;
#45 = CIRCLE ( 'NONE', #102, 6.000000000000000888 ) ;
#46 = CARTESIAN_POINT ( 'NONE',  ( -3.750000000000000000, 0.000000000000000000, 165.0000000000000000 ) ) ;
#47 = EDGE_LOOP ( 'NONE', ( #66, #234 ) ) ;
#48 = DIRECTION ( 'NONE',  ( 1.000000000000000000, 0.000000000000000000, 0.000000000000000000 ) ) ;
#49 = EDGE_CURVE ( 'NONE', #42, #99, #21, .T. ) ;
#50 = DIRECTION ( 'NONE',  ( -0.000000000000000000, -0.000000000000000000, -1.000000000000000000 ) ) ;
#51 = APPLICATION_CONTEXT ( 'configuration controlled 3d designs of mechanical parts and assemblies' ) ;
#52 = DIRECTION ( 'NONE',  ( 0.000000000000000000, 0.000000000000000000, 1.000000000000000000 ) ) ;
#53 = CARTESIAN_POINT ( 'NONE',  ( 0.000000000000000000, 0.000000000000000000, 0.000000000000000000 ) ) ;
#54 = LINE ( 'NONE', #166, #286 ) ;
#55 = DIRECTION ( 'NONE',  ( 0.000000000000000000, 0.000000000000000000, 1.000000000000000000 ) ) ;
#56 = CIRCLE ( 'NONE', #147, 3.949999999999999734 ) ;
#57 = CARTESIAN_POINT ( 'NONE',  ( -6.000000000000000888, 0.000000000000000000, 5.000000000000000000 ) ) ;
#58 = APPROVAL_PERSON_ORGANIZATION ( #158, #5, #229 ) ;
#59 = PERSON_AND_ORGANIZATION_ROLE ( 'creator' ) ;
#60 = ADVANCED_FACE ( 'NONE', ( #197 ), #196, .T. ) ;
#61 = COORDINATED_UNIVERSAL_TIME_OFFSET ( 1, 0, .AHEAD. ) ;
#62 = APPROVAL_STATUS ( 'not_yet_approved' ) ;
#63 = PERSON_AND_ORGANIZATION_ROLE ( 'design_supplier' ) ;
#64 = APPROVAL_DATE_TIME ( #269, #72 ) ;
#65 = ORIENTED_EDGE ( 'NONE', *, *, #206, .T. ) ;
#66 = ORIENTED_EDGE ( 'NONE', *, *, #117, .T. ) ;
#67 = CC_DESIGN_SECURITY_CLASSIFICATION ( #188, ( #268 ) ) ;
#68 = CC_DESIGN_PERSON_AND_ORGANIZATION_ASSIGNMENT ( #246, #38, ( #268 ) ) ;
#69 = CARTESIAN_POINT ( 'NONE',  ( 6.000000000000000888, 7.347880794884120722E-16, 5.000000000000000000 ) ) ;
#70 = AXIS2_PLACEMENT_3D ( 'NONE', #220, #1, #199 ) ;
#71 = EDGE_LOOP ( 'NONE', ( #240, #65, #277, #20 ) ) ;
#72 = APPROVAL ( #62, 'NEURÈENÝ' ) ;
#73 = AXIS2_PLACEMENT_3D ( 'NONE', #169, #120, #262 ) ;
#74 = CYLINDRICAL_SURFACE ( 'NONE', #267, 3.750000000000000000 ) ;
#75 = ORIENTED_EDGE ( 'NONE', *, *, #39, .F. ) ;
#76 = EDGE_LOOP ( 'NONE', ( #18, #243, #171, #177 ) ) ;
#77 = CARTESIAN_POINT ( 'NONE',  ( 6.000000000000000888, 7.347880794884120722E-16, 0.000000000000000000 ) ) ;
#78 = CIRCLE ( 'NONE', #73, 3.750000000000000000 ) ;
#79 = DIRECTION ( 'NONE',  ( 1.224646799147353207E-16, 1.000000000000000000, -0.000000000000000000 ) ) ;
#80 = FACE_OUTER_BOUND ( 'NONE', #71, .T. ) ;
#81 = ORIENTED_EDGE ( 'NONE', *, *, #39, .T. ) ;
#82 = DIRECTION ( 'NONE',  ( 0.000000000000000000, 0.000000000000000000, 1.000000000000000000 ) ) ;
#83 = CLOSED_SHELL ( 'NONE', ( #119, #216, #60, #36, #94, #96, #8, #276, #292 ) ) ;
#84 = CARTESIAN_POINT ( 'NONE',  ( 0.000000000000000000, 0.000000000000000000, 165.0000000000000000 ) ) ;
#85 = VECTOR ( 'NONE', #93, 1000.000000000000000 ) ;
#86 = APPROVAL_PERSON_ORGANIZATION ( #136, #16, #11 ) ;
#87 = SHAPE_DEFINITION_REPRESENTATION ( #30, #274 ) ;
#88 = EDGE_CURVE ( 'NONE', #187, #214, #298, .T. ) ;
#89 = CIRCLE ( 'NONE', #280, 0.1999999999999996503 ) ;
#90 = AXIS2_PLACEMENT_3D ( 'NONE', #6, #225, #19 ) ;
#91 = ORIENTED_EDGE ( 'NONE', *, *, #206, .F. ) ;
#92 = ORIENTED_EDGE ( 'NONE', *, *, #205, .T. ) ;
#93 = DIRECTION ( 'NONE',  ( -0.000000000000000000, -0.000000000000000000, -1.000000000000000000 ) ) ;
#94 = ADVANCED_FACE ( 'NONE', ( #242, #24 ), #126, .T. ) ;
#95 = FACE_OUTER_BOUND ( 'NONE', #150, .T. ) ;
#96 = ADVANCED_FACE ( 'NONE', ( #174 ), #261, .F. ) ;
#97 = CYLINDRICAL_SURFACE ( 'NONE', #12, 3.750000000000000000 ) ;
#98 = DIRECTION ( 'NONE',  ( 1.000000000000000000, 0.000000000000000000, 0.000000000000000000 ) ) ;
#99 = VERTEX_POINT ( 'NONE', #245 ) ;
#100 = CARTESIAN_POINT ( 'NONE',  ( 0.000000000000000000, 0.000000000000000000, 5.200000000000009948 ) ) ;
#101 = CARTESIAN_POINT ( 'NONE',  ( 0.000000000000000000, 0.000000000000000000, 5.200000000000009948 ) ) ;
#102 = AXIS2_PLACEMENT_3D ( 'NONE', #265, #107, #289 ) ;
#103 = LOCAL_TIME ( 14, 36, 1.000000000000000000, #162 ) ;
#104 = APPLICATION_CONTEXT ( 'configuration controlled 3d designs of mechanical parts and assemblies' ) ;
#105 = ORIENTED_EDGE ( 'NONE', *, *, #160, .F. ) ;
#106 = FACE_OUTER_BOUND ( 'NONE', #302, .T. ) ;
#107 = DIRECTION ( 'NONE',  ( 0.000000000000000000, 0.000000000000000000, 1.000000000000000000 ) ) ;
#108 = EDGE_CURVE ( 'NONE', #42, #144, #89, .T. ) ;
#109 = DATE_AND_TIME ( #110, #34 ) ;
#110 = CALENDAR_DATE ( 2022, 7, 7 ) ;
#111 = DATE_TIME_ROLE ( 'creation_date' ) ;
#112 = PERSON ( 'NEURÈENÝ', 'NEURÈENÝ', 'NEURÈENÝ', ('NEURÈENÝ'), ('NEURÈENÝ'), ('NEURÈENÝ') ) ;
#113 =( NAMED_UNIT ( * ) SI_UNIT ( $, .STERADIAN. ) SOLID_ANGLE_UNIT ( ) );
#114 = CIRCLE ( 'NONE', #281, 3.949999999999999734 ) ;
#115 = UNCERTAINTY_MEASURE_WITH_UNIT (LENGTH_MEASURE( 1.000000000000000082E-05 ), #17, 'distance_accuracy_value', 'NONE');
#116 = APPLICATION_PROTOCOL_DEFINITION ( 'international standard', 'config_control_design', 1994, #104 ) ;
#117 = EDGE_CURVE ( 'NONE', #144, #256, #56, .T. ) ;
#118 = ORIENTED_EDGE ( 'NONE', *, *, #108, .T. ) ;
#119 = ADVANCED_FACE ( 'NONE', ( #176 ), #228, .F. ) ;
#120 = DIRECTION ( 'NONE',  ( 0.000000000000000000, 0.000000000000000000, 1.000000000000000000 ) ) ;
#121 = FACE_OUTER_BOUND ( 'NONE', #76, .T. ) ;
#122 = FACE_OUTER_BOUND ( 'NONE', #198, .T. ) ;
#123 = TOROIDAL_SURFACE ( 'NONE', #287, 3.949999999999999734, 0.2000000000000000111 ) ;
#124 = DIRECTION ( 'NONE',  ( 0.000000000000000000, 0.000000000000000000, 1.000000000000000000 ) ) ;
#125 = EDGE_CURVE ( 'NONE', #99, #42, #33, .T. ) ;
#126 = PLANE ( 'NONE',  #70 ) ;
#127 = CARTESIAN_POINT ( 'NONE',  ( 0.000000000000000000, 0.000000000000000000, 0.000000000000000000 ) ) ;
#128 = AXIS2_PLACEMENT_3D ( 'NONE', #306, #79, #290 ) ;
#129 = CARTESIAN_POINT ( 'NONE',  ( 0.000000000000000000, 0.000000000000000000, 5.000000000000000000 ) ) ;
#130 = CARTESIAN_POINT ( 'NONE',  ( 0.000000000000000000, 0.000000000000000000, 5.000000000000000000 ) ) ;
#131 =( GEOMETRIC_REPRESENTATION_CONTEXT ( 3 ) GLOBAL_UNCERTAINTY_ASSIGNED_CONTEXT ( ( #115 ) ) GLOBAL_UNIT_ASSIGNED_CONTEXT ( ( #17, #40, #113 ) ) REPRESENTATION_CONTEXT ( 'NONE', 'WORKASPACE' ) );
#132 = DIRECTION ( 'NONE',  ( 0.000000000000000000, -1.000000000000000000, 0.000000000000000000 ) ) ;
#133 = DIRECTION ( 'NONE',  ( 1.000000000000000000, 0.000000000000000000, 0.000000000000000000 ) ) ;
#134 = COORDINATED_UNIVERSAL_TIME_OFFSET ( 1, 0, .AHEAD. ) ;
#135 = PERSON_AND_ORGANIZATION_ROLE ( 'design_owner' ) ;
#136 = PERSON_AND_ORGANIZATION ( #112, #236 ) ;
#137 = AXIS2_PLACEMENT_3D ( 'NONE', #101, #143, #48 ) ;
#138 = ORIENTED_EDGE ( 'NONE', *, *, #88, .F. ) ;
#139 = AXIS2_PLACEMENT_3D ( 'NONE', #129, #222, #217 ) ;
#140 = CARTESIAN_POINT ( 'NONE',  ( 6.000000000000000888, 7.347880794884120722E-16, 5.000000000000000000 ) ) ;
#141 = CC_DESIGN_PERSON_AND_ORGANIZATION_ASSIGNMENT ( #7, #59, ( #297 ) ) ;
#142 = ORIENTED_EDGE ( 'NONE', *, *, #186, .F. ) ;
#143 = DIRECTION ( 'NONE',  ( 0.000000000000000000, 0.000000000000000000, 1.000000000000000000 ) ) ;
#144 = VERTEX_POINT ( 'NONE', #237 ) ;
#145 = EDGE_CURVE ( 'NONE', #149, #275, #212, .T. ) ;
#146 = DIRECTION ( 'NONE',  ( -1.000000000000000000, 0.000000000000000000, 0.000000000000000000 ) ) ;
#147 = AXIS2_PLACEMENT_3D ( 'NONE', #130, #203, #204 ) ;
#148 = LOCAL_TIME ( 14, 36, 1.000000000000000000, #179 ) ;
#149 = VERTEX_POINT ( 'NONE', #291 ) ;
#150 = EDGE_LOOP ( 'NONE', ( #75, #284, #118, #254 ) ) ;
#151 = DIRECTION ( 'NONE',  ( -1.000000000000000000, 0.000000000000000000, 0.000000000000000000 ) ) ;
#152 = DIRECTION ( 'NONE',  ( 1.000000000000000000, 0.000000000000000000, -0.000000000000000000 ) ) ;
#153 = CC_DESIGN_PERSON_AND_ORGANIZATION_ASSIGNMENT ( #180, #31, ( #188 ) ) ;
#154 = LINE ( 'NONE', #46, #252 ) ;
#155 = AXIS2_PLACEMENT_3D ( 'NONE', #185, #231, #247 ) ;
#156 = COORDINATED_UNIVERSAL_TIME_OFFSET ( 1, 0, .AHEAD. ) ;
#157 = APPROVAL_DATE_TIME ( #230, #16 ) ;
#158 = PERSON_AND_ORGANIZATION ( #112, #236 ) ;
#159 = CALENDAR_DATE ( 2022, 7, 7 ) ;
#160 = EDGE_CURVE ( 'NONE', #149, #249, #215, .T. ) ;
#161 = DESIGN_CONTEXT ( 'detailed design', #104, 'design' ) ;
#162 = COORDINATED_UNIVERSAL_TIME_OFFSET ( 1, 0, .AHEAD. ) ;
#163 = ORIENTED_EDGE ( 'NONE', *, *, #88, .T. ) ;
#164 = ORIENTED_EDGE ( 'NONE', *, *, #13, .F. ) ;
#165 = ORIENTED_EDGE ( 'NONE', *, *, #125, .T. ) ;
#166 = CARTESIAN_POINT ( 'NONE',  ( 3.750000000000000000, 4.592425496802573972E-16, 165.0000000000000000 ) ) ;
#167 = AXIS2_PLACEMENT_3D ( 'NONE', #127, #43, #250 ) ;
#168 = EDGE_LOOP ( 'NONE', ( #14, #142 ) ) ;
#169 = CARTESIAN_POINT ( 'NONE',  ( 0.000000000000000000, 0.000000000000000000, 165.0000000000000000 ) ) ;
#170 = ORIENTED_EDGE ( 'NONE', *, *, #117, .F. ) ;
#171 = ORIENTED_EDGE ( 'NONE', *, *, #160, .T. ) ;
#172 = AXIS2_PLACEMENT_3D ( 'NONE', #288, #50, #146 ) ;
#173 = DIRECTION ( 'NONE',  ( -0.000000000000000000, -0.000000000000000000, -1.000000000000000000 ) ) ;
#174 = FACE_OUTER_BOUND ( 'NONE', #168, .T. ) ;
#175 = PRODUCT ( 'e26d', 'e26d', '', ( #35 ) ) ;
#176 = FACE_OUTER_BOUND ( 'NONE', #22, .T. ) ;
#177 = ORIENTED_EDGE ( 'NONE', *, *, #263, .T. ) ;
#178 = CARTESIAN_POINT ( 'NONE',  ( 0.000000000000000000, 0.000000000000000000, 165.0000000000000000 ) ) ;
#179 = COORDINATED_UNIVERSAL_TIME_OFFSET ( 1, 0, .AHEAD. ) ;
#180 = PERSON_AND_ORGANIZATION ( #112, #236 ) ;
#181 = CC_DESIGN_PERSON_AND_ORGANIZATION_ASSIGNMENT ( #208, #135, ( #175 ) ) ;
#182 = APPROVAL_DATE_TIME ( #9, #5 ) ;
#183 = APPROVAL_STATUS ( 'not_yet_approved' ) ;
#184 = AXIS2_PLACEMENT_3D ( 'NONE', #278, #235, #201 ) ;
#185 = CARTESIAN_POINT ( 'NONE',  ( 0.000000000000000000, 0.000000000000000000, 0.000000000000000000 ) ) ;
#186 = EDGE_CURVE ( 'NONE', #41, #249, #45, .T. ) ;
#187 = VERTEX_POINT ( 'NONE', #293 ) ;
#188 = SECURITY_CLASSIFICATION ( '', '', #226 ) ;
#189 = ORIENTED_EDGE ( 'NONE', *, *, #193, .T. ) ;
#190 = CC_DESIGN_DATE_AND_TIME_ASSIGNMENT ( #109, #248, ( #188 ) ) ;
#191 = ORIENTED_EDGE ( 'NONE', *, *, #125, .F. ) ;
#192 = DIRECTION ( 'NONE',  ( -0.000000000000000000, -0.000000000000000000, -1.000000000000000000 ) ) ;
#193 = EDGE_CURVE ( 'NONE', #214, #187, #78, .T. ) ;
#194 = AXIS2_PLACEMENT_3D ( 'NONE', #53, #55, #152 ) ;
#195 = CARTESIAN_POINT ( 'NONE',  ( 0.000000000000000000, 0.000000000000000000, 5.200000000000009948 ) ) ;
#196 = CYLINDRICAL_SURFACE ( 'NONE', #172, 6.000000000000000888 ) ;
#197 = FACE_OUTER_BOUND ( 'NONE', #233, .T. ) ;
#198 = EDGE_LOOP ( 'NONE', ( #91, #138, #15, #165 ) ) ;
#199 = DIRECTION ( 'NONE',  ( 1.000000000000000000, 0.000000000000000000, -0.000000000000000000 ) ) ;
#200 = LOCAL_TIME ( 14, 36, 1.000000000000000000, #61 ) ;
#201 = DIRECTION ( 'NONE',  ( 1.000000000000000000, 0.000000000000000000, 0.000000000000000000 ) ) ;
#202 = DIRECTION ( 'NONE',  ( -1.000000000000000000, 0.000000000000000000, 0.000000000000000000 ) ) ;
#203 = DIRECTION ( 'NONE',  ( -0.000000000000000000, -0.000000000000000000, -1.000000000000000000 ) ) ;
#204 = DIRECTION ( 'NONE',  ( 1.000000000000000000, 0.000000000000000000, 0.000000000000000000 ) ) ;
#205 = EDGE_CURVE ( 'NONE', #275, #41, #255, .T. ) ;
#206 = EDGE_CURVE ( 'NONE', #214, #42, #54, .T. ) ;
#207 = EDGE_CURVE ( 'NONE', #187, #99, #154, .T. ) ;
#208 = PERSON_AND_ORGANIZATION ( #112, #236 ) ;
#209 = VECTOR ( 'NONE', #224, 1000.000000000000000 ) ;
#210 = CC_DESIGN_APPROVAL ( #16, ( #188 ) ) ;
#211 = PERSON_AND_ORGANIZATION ( #112, #236 ) ;
#212 = CIRCLE ( 'NONE', #184, 6.000000000000000888 ) ;
#213 = APPROVAL_PERSON_ORGANIZATION ( #211, #72, #301 ) ;
#214 = VERTEX_POINT ( 'NONE', #239 ) ;
#215 = LINE ( 'NONE', #57, #209 ) ;
#216 = ADVANCED_FACE ( 'NONE', ( #80 ), #74, .T. ) ;
#217 = DIRECTION ( 'NONE',  ( 1.000000000000000000, 0.000000000000000000, 0.000000000000000000 ) ) ;
#218 = CC_DESIGN_APPROVAL ( #5, ( #268 ) ) ;
#219 = DIRECTION ( 'NONE',  ( 1.000000000000000000, 0.000000000000000000, 0.000000000000000000 ) ) ;
#220 = CARTESIAN_POINT ( 'NONE',  ( 0.000000000000000000, 0.000000000000000000, 5.000000000000000000 ) ) ;
#221 = CARTESIAN_POINT ( 'NONE',  ( 0.000000000000000000, 0.000000000000000000, 5.000000000000000000 ) ) ;
#222 = DIRECTION ( 'NONE',  ( 0.000000000000000000, 0.000000000000000000, 1.000000000000000000 ) ) ;
#223 = CC_DESIGN_APPROVAL ( #72, ( #297 ) ) ;
#224 = DIRECTION ( 'NONE',  ( -0.000000000000000000, -0.000000000000000000, -1.000000000000000000 ) ) ;
#225 = DIRECTION ( 'NONE',  ( 0.000000000000000000, 0.000000000000000000, 1.000000000000000000 ) ) ;
#226 = SECURITY_CLASSIFICATION_LEVEL ( 'unclassified' ) ;
#227 = AXIS2_PLACEMENT_3D ( 'NONE', #100, #52, #98 ) ;
#228 = TOROIDAL_SURFACE ( 'NONE', #90, 3.949999999999999734, 0.2000000000000000111 ) ;
#229 = APPROVAL_ROLE ( '' ) ;
#230 = DATE_AND_TIME ( #300, #200 ) ;
#231 = DIRECTION ( 'NONE',  ( 0.000000000000000000, 0.000000000000000000, 1.000000000000000000 ) ) ;
#232 = AXIS2_PLACEMENT_3D ( 'NONE', #178, #82, #303 ) ;
#233 = EDGE_LOOP ( 'NONE', ( #164, #92, #305, #105 ) ) ;
#234 = ORIENTED_EDGE ( 'NONE', *, *, #266, .T. ) ;
#235 = DIRECTION ( 'NONE',  ( 0.000000000000000000, 0.000000000000000000, 1.000000000000000000 ) ) ;
#236 = ORGANIZATION ( 'NEURÈENÝ', 'NEURÈENÝ', '' ) ;
#237 = CARTESIAN_POINT ( 'NONE',  ( 3.949999999999999734, 0.000000000000000000, 5.000000000000005329 ) ) ;
#238 = CARTESIAN_POINT ( 'NONE',  ( 0.000000000000000000, 0.000000000000000000, 5.000000000000000000 ) ) ;
#239 = CARTESIAN_POINT ( 'NONE',  ( 3.750000000000000000, 4.592425496802573972E-16, 165.0000000000000000 ) ) ;
#240 = ORIENTED_EDGE ( 'NONE', *, *, #193, .F. ) ;
#241 = CARTESIAN_POINT ( 'NONE',  ( 0.000000000000000000, 0.000000000000000000, 165.0000000000000000 ) ) ;
#242 = FACE_BOUND ( 'NONE', #47, .T. ) ;
#243 = ORIENTED_EDGE ( 'NONE', *, *, #145, .F. ) ;
#244 = CARTESIAN_POINT ( 'NONE',  ( -6.000000000000000888, 0.000000000000000000, 0.000000000000000000 ) ) ;
#245 = CARTESIAN_POINT ( 'NONE',  ( -3.750000000000000000, 0.000000000000000000, 5.200000000000009948 ) ) ;
#246 = PERSON_AND_ORGANIZATION ( #112, #236 ) ;
#247 = DIRECTION ( 'NONE',  ( 1.000000000000000000, 0.000000000000000000, 0.000000000000000000 ) ) ;
#248 = DATE_TIME_ROLE ( 'classification_date' ) ;
#249 = VERTEX_POINT ( 'NONE', #244 ) ;
#250 = DIRECTION ( 'NONE',  ( 1.000000000000000000, 0.000000000000000000, 0.000000000000000000 ) ) ;
#251 = AXIS2_PLACEMENT_3D ( 'NONE', #238, #283, #202 ) ;
#252 = VECTOR ( 'NONE', #192, 1000.000000000000000 ) ;
#253 = DIRECTION ( 'NONE',  ( 0.000000000000000000, 0.000000000000000000, 1.000000000000000000 ) ) ;
#254 = ORIENTED_EDGE ( 'NONE', *, *, #266, .F. ) ;
#255 = LINE ( 'NONE', #69, #85 ) ;
#256 = VERTEX_POINT ( 'NONE', #304 ) ;
#257 = DIRECTION ( 'NONE',  ( -1.000000000000000000, 0.000000000000000000, 0.000000000000000000 ) ) ;
#258 = CC_DESIGN_PERSON_AND_ORGANIZATION_ASSIGNMENT ( #10, #63, ( #268 ) ) ;
#259 = LOCAL_TIME ( 14, 36, 1.000000000000000000, #156 ) ;
#260 = CARTESIAN_POINT ( 'NONE',  ( 3.750000000000000000, 4.592425496802573972E-16, 5.200000000000009948 ) ) ;
#261 = PLANE ( 'NONE',  #194 ) ;
#262 = DIRECTION ( 'NONE',  ( 1.000000000000000000, 0.000000000000000000, 0.000000000000000000 ) ) ;
#263 = EDGE_CURVE ( 'NONE', #249, #41, #299, .T. ) ;
#264 = DIRECTION ( 'NONE',  ( 0.000000000000000000, 0.000000000000000000, -1.000000000000000000 ) ) ;
#265 = CARTESIAN_POINT ( 'NONE',  ( 0.000000000000000000, 0.000000000000000000, 0.000000000000000000 ) ) ;
#266 = EDGE_CURVE ( 'NONE', #256, #144, #114, .T. ) ;
#267 = AXIS2_PLACEMENT_3D ( 'NONE', #84, #25, #151 ) ;
#268 = PRODUCT_DEFINITION_FORMATION_WITH_SPECIFIED_SOURCE ( 'LIBOVOLNÝ', '', #175, .NOT_KNOWN. ) ;
#269 = DATE_AND_TIME ( #159, #148 ) ;
#270 = APPROVAL_STATUS ( 'not_yet_approved' ) ;
#271 = CALENDAR_DATE ( 2022, 7, 7 ) ;
#272 = PRODUCT_RELATED_PRODUCT_CATEGORY ( 'detail', '', ( #175 ) ) ;
#273 = APPLICATION_PROTOCOL_DEFINITION ( 'international standard', 'config_control_design', 1994, #51 ) ;
#274 = ADVANCED_BREP_SHAPE_REPRESENTATION ( 'e26d', ( #37, #155 ), #131 ) ;
#275 = VERTEX_POINT ( 'NONE', #140 ) ;
#276 = ADVANCED_FACE ( 'NONE', ( #106 ), #2, .T. ) ;
#277 = ORIENTED_EDGE ( 'NONE', *, *, #49, .T. ) ;
#278 = CARTESIAN_POINT ( 'NONE',  ( 0.000000000000000000, 0.000000000000000000, 5.000000000000000000 ) ) ;
#279 = ORIENTED_EDGE ( 'NONE', *, *, #108, .F. ) ;
#280 = AXIS2_PLACEMENT_3D ( 'NONE', #29, #132, #264 ) ;
#281 = AXIS2_PLACEMENT_3D ( 'NONE', #221, #28, #4 ) ;
#282 = DIRECTION ( 'NONE',  ( -0.000000000000000000, -0.000000000000000000, -1.000000000000000000 ) ) ;
#283 = DIRECTION ( 'NONE',  ( -0.000000000000000000, -0.000000000000000000, -1.000000000000000000 ) ) ;
#284 = ORIENTED_EDGE ( 'NONE', *, *, #49, .F. ) ;
#285 = ORIENTED_EDGE ( 'NONE', *, *, #13, .T. ) ;
#286 = VECTOR ( 'NONE', #282, 1000.000000000000000 ) ;
#287 = AXIS2_PLACEMENT_3D ( 'NONE', #195, #253, #133 ) ;
#288 = CARTESIAN_POINT ( 'NONE',  ( 0.000000000000000000, 0.000000000000000000, 5.000000000000000000 ) ) ;
#289 = DIRECTION ( 'NONE',  ( 1.000000000000000000, 0.000000000000000000, 0.000000000000000000 ) ) ;
#290 = DIRECTION ( 'NONE',  ( -1.000000000000000000, 1.224646799147353454E-16, 0.000000000000000000 ) ) ;
#291 = CARTESIAN_POINT ( 'NONE',  ( -6.000000000000000888, 0.000000000000000000, 5.000000000000000000 ) ) ;
#292 = ADVANCED_FACE ( 'NONE', ( #95 ), #123, .F. ) ;
#293 = CARTESIAN_POINT ( 'NONE',  ( -3.750000000000000000, 0.000000000000000000, 165.0000000000000000 ) ) ;
#294 = CIRCLE ( 'NONE', #139, 6.000000000000000888 ) ;
#295 = CALENDAR_DATE ( 2022, 7, 7 ) ;
#296 = DATE_AND_TIME ( #295, #259 ) ;
#297 = PRODUCT_DEFINITION ( 'NEZNÁMÝ', '', #268, #161 ) ;
#298 = CIRCLE ( 'NONE', #27, 3.750000000000000000 ) ;
#299 = CIRCLE ( 'NONE', #167, 6.000000000000000888 ) ;
#300 = CALENDAR_DATE ( 2022, 7, 7 ) ;
#301 = APPROVAL_ROLE ( '' ) ;
#302 = EDGE_LOOP ( 'NONE', ( #163, #189 ) ) ;
#303 = DIRECTION ( 'NONE',  ( 1.000000000000000000, 0.000000000000000000, -0.000000000000000000 ) ) ;
#304 = CARTESIAN_POINT ( 'NONE',  ( -3.949999999999999734, 4.837354856632044071E-16, 5.000000000000005329 ) ) ;
#305 = ORIENTED_EDGE ( 'NONE', *, *, #186, .T. ) ;
#306 = CARTESIAN_POINT ( 'NONE',  ( -3.949999999999999734, 4.837354856632044071E-16, 5.200000000000009948 ) ) ;
#307 = EDGE_LOOP ( 'NONE', ( #26, #285 ) ) ;
ENDSEC;
END-ISO-10303-21;
