ISO-10303-21;
HEADER;
FILE_DESCRIPTION (( 'STEP AP203' ),
    '1' );
FILE_NAME ('72bc.STEP',
    '2022-07-07T12:58:00',
    ( '' ),
    ( '' ),
    'SwSTEP 2.0',
    'SolidWorks 2019',
    '' );
FILE_SCHEMA (( 'CONFIG_CONTROL_DESIGN' ));
ENDSEC;

DATA;
#1 = DIRECTION ( 'NONE',  ( 0.000000000000000000, 0.000000000000000000, 1.000000000000000000 ) ) ;
#2 = DIRECTION ( 'NONE',  ( 0.000000000000000000, 0.000000000000000000, -1.000000000000000000 ) ) ;
#3 = APPLICATION_PROTOCOL_DEFINITION ( 'international standard', 'config_control_design', 1994, #47 ) ;
#4 = CYLINDRICAL_SURFACE ( 'NONE', #176, 2.000000000000000000 ) ;
#5 = CALENDAR_DATE ( 2022, 7, 7 ) ;
#6 = LOCAL_TIME ( 14, 58, 0.000000000000000000, #80 ) ;
#7 = ORIENTED_EDGE ( 'NONE', *, *, #45, .F. ) ;
#8 = ORIENTED_EDGE ( 'NONE', *, *, #213, .F. ) ;
#9 = DATE_TIME_ROLE ( 'creation_date' ) ;
#10 = EDGE_LOOP ( 'NONE', ( #7, #271, #79, #221 ) ) ;
#11 = APPROVAL_ROLE ( '' ) ;
#12 = EDGE_CURVE ( 'NONE', #130, #13, #83, .T. ) ;
#13 = VERTEX_POINT ( 'NONE', #152 ) ;
#14 = CYLINDRICAL_SURFACE ( 'NONE', #116, 2.000000000000000000 ) ;
#15 = DIRECTION ( 'NONE',  ( 1.000000000000000000, 0.000000000000000000, -0.000000000000000000 ) ) ;
#16 = DIRECTION ( 'NONE',  ( 1.000000000000000000, 0.000000000000000000, 0.000000000000000000 ) ) ;
#17 = CIRCLE ( 'NONE', #100, 1.100000000000000089 ) ;
#18 = FACE_OUTER_BOUND ( 'NONE', #31, .T. ) ;
#19 = EDGE_CURVE ( 'NONE', #199, #149, #249, .T. ) ;
#20 = CARTESIAN_POINT ( 'NONE',  ( 0.000000000000000000, 0.000000000000000000, 2.000000000000000000 ) ) ;
#21 = LOCAL_TIME ( 14, 58, 0.000000000000000000, #217 ) ;
#22 = EDGE_CURVE ( 'NONE', #295, #218, #119, .T. ) ;
#23 = CARTESIAN_POINT ( 'NONE',  ( 0.000000000000000000, 0.000000000000000000, 102.0000000000000142 ) ) ;
#24 = CALENDAR_DATE ( 2022, 7, 7 ) ;
#25 = CC_DESIGN_APPROVAL ( #178, ( #87 ) ) ;
#26 = ORIENTED_EDGE ( 'NONE', *, *, #40, .F. ) ;
#27 = APPROVAL_DATE_TIME ( #266, #178 ) ;
#28 = EDGE_LOOP ( 'NONE', ( #196, #104, #58, #33 ) ) ;
#29 = PRODUCT_DEFINITION ( 'NEZNÁMÝ', '', #300, #126 ) ;
#30 = DATE_AND_TIME ( #24, #243 ) ;
#31 = EDGE_LOOP ( 'NONE', ( #173, #109 ) ) ;
#32 = CIRCLE ( 'NONE', #207, 2.000000000000000000 ) ;
#33 = ORIENTED_EDGE ( 'NONE', *, *, #167, .F. ) ;
#34 = ADVANCED_FACE ( 'NONE', ( #205 ), #42, .T. ) ;
#35 = ADVANCED_FACE ( 'NONE', ( #303 ), #252, .T. ) ;
#36 = ORIENTED_EDGE ( 'NONE', *, *, #102, .F. ) ;
#37 = CC_DESIGN_PERSON_AND_ORGANIZATION_ASSIGNMENT ( #131, #53, ( #87 ) ) ;
#38 = DIRECTION ( 'NONE',  ( 0.000000000000000000, 0.000000000000000000, 1.000000000000000000 ) ) ;
#39 = CARTESIAN_POINT ( 'NONE',  ( 0.000000000000000000, 0.000000000000000000, 102.0000000000000142 ) ) ;
#40 = EDGE_CURVE ( 'NONE', #218, #298, #209, .T. ) ;
#41 = CARTESIAN_POINT ( 'NONE',  ( 0.000000000000000000, 0.000000000000000000, 2.000000000000000000 ) ) ;
#42 = CYLINDRICAL_SURFACE ( 'NONE', #304, 1.100000000000000089 ) ;
#43 = CARTESIAN_POINT ( 'NONE',  ( 0.000000000000000000, 0.000000000000000000, 102.0000000000000142 ) ) ;
#44 = AXIS2_PLACEMENT_3D ( 'NONE', #284, #1, #211 ) ;
#45 = EDGE_CURVE ( 'NONE', #130, #199, #283, .T. ) ;
#46 =( LENGTH_UNIT ( ) NAMED_UNIT ( * ) SI_UNIT ( .MILLI., .METRE. ) );
#47 = APPLICATION_CONTEXT ( 'configuration controlled 3d designs of mechanical parts and assemblies' ) ;
#48 = PERSON_AND_ORGANIZATION_ROLE ( 'design_owner' ) ;
#49 = DIRECTION ( 'NONE',  ( 1.000000000000000000, 0.000000000000000000, 0.000000000000000000 ) ) ;
#50 = ADVANCED_FACE ( 'NONE', ( #232, #18 ), #115, .T. ) ;
#51 = AXIS2_PLACEMENT_3D ( 'NONE', #120, #68, #72 ) ;
#52 = DIRECTION ( 'NONE',  ( -1.000000000000000000, 0.000000000000000000, 0.000000000000000000 ) ) ;
#53 = PERSON_AND_ORGANIZATION_ROLE ( 'classification_officer' ) ;
#54 = ORIENTED_EDGE ( 'NONE', *, *, #287, .T. ) ;
#55 = AXIS2_PLACEMENT_3D ( 'NONE', #184, #281, #123 ) ;
#56 = EDGE_LOOP ( 'NONE', ( #225, #264 ) ) ;
#57 = CALENDAR_DATE ( 2022, 7, 7 ) ;
#58 = ORIENTED_EDGE ( 'NONE', *, *, #213, .T. ) ;
#59 = APPROVAL_DATE_TIME ( #30, #172 ) ;
#60 = ORIENTED_EDGE ( 'NONE', *, *, #204, .F. ) ;
#61 = EDGE_LOOP ( 'NONE', ( #134, #297 ) ) ;
#62 = CARTESIAN_POINT ( 'NONE',  ( 0.000000000000000000, 0.000000000000000000, 2.000000000000000000 ) ) ;
#63 = CARTESIAN_POINT ( 'NONE',  ( 0.000000000000000000, 0.000000000000000000, 2.199999999999993516 ) ) ;
#64 = FACE_OUTER_BOUND ( 'NONE', #10, .T. ) ;
#65 = DIRECTION ( 'NONE',  ( 0.000000000000000000, 0.000000000000000000, 1.000000000000000000 ) ) ;
#66 = CARTESIAN_POINT ( 'NONE',  ( 0.000000000000000000, 0.000000000000000000, 2.199999999999993516 ) ) ;
#67 = VECTOR ( 'NONE', #270, 1000.000000000000000 ) ;
#68 = DIRECTION ( 'NONE',  ( 0.000000000000000000, 0.000000000000000000, 1.000000000000000000 ) ) ;
#69 = AXIS2_PLACEMENT_3D ( 'NONE', #20, #169, #307 ) ;
#70 =( NAMED_UNIT ( * ) SI_UNIT ( $, .STERADIAN. ) SOLID_ANGLE_UNIT ( ) );
#71 = EDGE_CURVE ( 'NONE', #13, #149, #32, .T. ) ;
#72 = DIRECTION ( 'NONE',  ( 1.000000000000000000, 0.000000000000000000, 0.000000000000000000 ) ) ;
#73 = CIRCLE ( 'NONE', #248, 1.100000000000000089 ) ;
#74 = ORGANIZATION ( 'NEURÈENÝ', 'NEURÈENÝ', '' ) ;
#75 = CARTESIAN_POINT ( 'NONE',  ( -1.100000000000000089, 0.000000000000000000, 102.0000000000000142 ) ) ;
#76 = PERSON_AND_ORGANIZATION_ROLE ( 'design_supplier' ) ;
#77 = ORIENTED_EDGE ( 'NONE', *, *, #239, .F. ) ;
#78 = EDGE_CURVE ( 'NONE', #295, #267, #183, .T. ) ;
#79 = ORIENTED_EDGE ( 'NONE', *, *, #71, .T. ) ;
#80 = COORDINATED_UNIVERSAL_TIME_OFFSET ( 1, 0, .AHEAD. ) ;
#81 = AXIS2_PLACEMENT_3D ( 'NONE', #93, #237, #118 ) ;
#82 = EDGE_LOOP ( 'NONE', ( #26, #194, #191, #147 ) ) ;
#83 = LINE ( 'NONE', #174, #67 ) ;
#84 = PERSON_AND_ORGANIZATION_ROLE ( 'creator' ) ;
#85 = AXIS2_PLACEMENT_3D ( 'NONE', #258, #38, #141 ) ;
#86 = DIRECTION ( 'NONE',  ( 1.000000000000000000, 0.000000000000000000, -0.000000000000000000 ) ) ;
#87 = SECURITY_CLASSIFICATION ( '', '', #170 ) ;
#88 = CARTESIAN_POINT ( 'NONE',  ( 1.100000000000000089, 1.347111479062088503E-16, 102.0000000000000142 ) ) ;
#89 = CC_DESIGN_PERSON_AND_ORGANIZATION_ASSIGNMENT ( #263, #240, ( #29 ) ) ;
#90 = CARTESIAN_POINT ( 'NONE',  ( 2.000000000000000000, 2.449293598294706414E-16, 2.000000000000000000 ) ) ;
#91 = AXIS2_PLACEMENT_3D ( 'NONE', #23, #262, #49 ) ;
#92 = DIRECTION ( 'NONE',  ( 0.000000000000000000, 0.000000000000000000, 1.000000000000000000 ) ) ;
#93 = CARTESIAN_POINT ( 'NONE',  ( -1.300000000000000266, 1.592040838891559342E-16, 2.199999999999993516 ) ) ;
#94 = CC_DESIGN_PERSON_AND_ORGANIZATION_ASSIGNMENT ( #291, #76, ( #300 ) ) ;
#95 =( NAMED_UNIT ( * ) PLANE_ANGLE_UNIT ( ) SI_UNIT ( $, .RADIAN. ) );
#96 = CIRCLE ( 'NONE', #222, 0.2000000000000000944 ) ;
#97 = FACE_OUTER_BOUND ( 'NONE', #128, .T. ) ;
#98 = PERSON_AND_ORGANIZATION ( #117, #74 ) ;
#99 = FACE_OUTER_BOUND ( 'NONE', #155, .T. ) ;
#100 = AXIS2_PLACEMENT_3D ( 'NONE', #66, #180, #162 ) ;
#101 = CC_DESIGN_APPROVAL ( #165, ( #29 ) ) ;
#102 = EDGE_CURVE ( 'NONE', #267, #298, #73, .T. ) ;
#103 = COORDINATED_UNIVERSAL_TIME_OFFSET ( 1, 0, .AHEAD. ) ;
#104 = ORIENTED_EDGE ( 'NONE', *, *, #140, .F. ) ;
#105 = CALENDAR_DATE ( 2022, 7, 7 ) ;
#106 = ORIENTED_EDGE ( 'NONE', *, *, #19, .T. ) ;
#107 = VECTOR ( 'NONE', #299, 1000.000000000000000 ) ;
#108 = VERTEX_POINT ( 'NONE', #251 ) ;
#109 = ORIENTED_EDGE ( 'NONE', *, *, #45, .T. ) ;
#110 = PRODUCT ( '72bc', '72bc', '', ( #166 ) ) ;
#111 = DIRECTION ( 'NONE',  ( -0.000000000000000000, -0.000000000000000000, -1.000000000000000000 ) ) ;
#112 = DIRECTION ( 'NONE',  ( -0.000000000000000000, -0.000000000000000000, -1.000000000000000000 ) ) ;
#113 = DIRECTION ( 'NONE',  ( 0.000000000000000000, 0.000000000000000000, 1.000000000000000000 ) ) ;
#114 = FACE_OUTER_BOUND ( 'NONE', #28, .T. ) ;
#115 = PLANE ( 'NONE',  #195 ) ;
#116 = AXIS2_PLACEMENT_3D ( 'NONE', #255, #111, #138 ) ;
#117 = PERSON ( 'NEURÈENÝ', 'NEURÈENÝ', 'NEURÈENÝ', ('NEURÈENÝ'), ('NEURÈENÝ'), ('NEURÈENÝ') ) ;
#118 = DIRECTION ( 'NONE',  ( -1.000000000000000000, 1.224646799147353207E-16, 0.000000000000000000 ) ) ;
#119 = CIRCLE ( 'NONE', #226, 1.100000000000000089 ) ;
#120 = CARTESIAN_POINT ( 'NONE',  ( 0.000000000000000000, 0.000000000000000000, 2.000000000000000000 ) ) ;
#121 = AXIS2_PLACEMENT_3D ( 'NONE', #276, #230, #16 ) ;
#122 = CC_DESIGN_PERSON_AND_ORGANIZATION_ASSIGNMENT ( #151, #84, ( #300 ) ) ;
#123 = DIRECTION ( 'NONE',  ( 1.000000000000000000, 0.000000000000000000, 0.000000000000000000 ) ) ;
#124 = CARTESIAN_POINT ( 'NONE',  ( 1.300000000000000266, 0.000000000000000000, 2.199999999999993516 ) ) ;
#125 = DATE_AND_TIME ( #57, #21 ) ;
#126 = DESIGN_CONTEXT ( 'detailed design', #47, 'design' ) ;
#127 = ORIENTED_EDGE ( 'NONE', *, *, #140, .T. ) ;
#128 = EDGE_LOOP ( 'NONE', ( #36, #150, #60, #8 ) ) ;
#129 = COORDINATED_UNIVERSAL_TIME_OFFSET ( 1, 0, .AHEAD. ) ;
#130 = VERTEX_POINT ( 'NONE', #90 ) ;
#131 = PERSON_AND_ORGANIZATION ( #117, #74 ) ;
#132 = CIRCLE ( 'NONE', #81, 0.2000000000000000944 ) ;
#133 = CARTESIAN_POINT ( 'NONE',  ( -2.000000000000000000, 0.000000000000000000, 2.000000000000000000 ) ) ;
#134 = ORIENTED_EDGE ( 'NONE', *, *, #204, .T. ) ;
#135 = DIRECTION ( 'NONE',  ( 1.000000000000000000, 0.000000000000000000, 0.000000000000000000 ) ) ;
#136 = LOCAL_TIME ( 14, 58, 0.000000000000000000, #244 ) ;
#137 = DIRECTION ( 'NONE',  ( 1.000000000000000000, 0.000000000000000000, 0.000000000000000000 ) ) ;
#138 = DIRECTION ( 'NONE',  ( -1.000000000000000000, 0.000000000000000000, 0.000000000000000000 ) ) ;
#139 = DIRECTION ( 'NONE',  ( -1.000000000000000000, 0.000000000000000000, 0.000000000000000000 ) ) ;
#140 = EDGE_CURVE ( 'NONE', #298, #267, #17, .T. ) ;
#141 = DIRECTION ( 'NONE',  ( 1.000000000000000000, 0.000000000000000000, -0.000000000000000000 ) ) ;
#142 = CIRCLE ( 'NONE', #91, 1.100000000000000089 ) ;
#143 = CARTESIAN_POINT ( 'NONE',  ( 1.100000000000000089, 1.347111479062088503E-16, 2.199999999999993516 ) ) ;
#144 = APPROVAL_PERSON_ORGANIZATION ( #98, #165, #282 ) ;
#145 = ADVANCED_FACE ( 'NONE', ( #305 ), #301, .F. ) ;
#146 = SHAPE_DEFINITION_REPRESENTATION ( #223, #202 ) ;
#147 = ORIENTED_EDGE ( 'NONE', *, *, #102, .T. ) ;
#148 = DATE_AND_TIME ( #175, #286 ) ;
#149 = VERTEX_POINT ( 'NONE', #277 ) ;
#150 = ORIENTED_EDGE ( 'NONE', *, *, #257, .T. ) ;
#151 = PERSON_AND_ORGANIZATION ( #117, #74 ) ;
#152 = CARTESIAN_POINT ( 'NONE',  ( 2.000000000000000000, 2.449293598294706414E-16, 0.000000000000000000 ) ) ;
#153 = VECTOR ( 'NONE', #160, 1000.000000000000000 ) ;
#154 = AXIS2_PLACEMENT_3D ( 'NONE', #203, #112, #179 ) ;
#155 = EDGE_LOOP ( 'NONE', ( #245, #292, #106, #54 ) ) ;
#156 = ADVANCED_FACE ( 'NONE', ( #64 ), #14, .T. ) ;
#157 = ADVANCED_FACE ( 'NONE', ( #227 ), #201, .T. ) ;
#158 = DIRECTION ( 'NONE',  ( 0.000000000000000000, 0.000000000000000000, 1.000000000000000000 ) ) ;
#159 = CARTESIAN_POINT ( 'NONE',  ( 0.000000000000000000, 0.000000000000000000, 102.0000000000000142 ) ) ;
#160 = DIRECTION ( 'NONE',  ( -0.000000000000000000, -0.000000000000000000, -1.000000000000000000 ) ) ;
#161 = DIRECTION ( 'NONE',  ( 0.000000000000000000, 0.000000000000000000, 1.000000000000000000 ) ) ;
#162 = DIRECTION ( 'NONE',  ( 1.000000000000000000, 0.000000000000000000, 0.000000000000000000 ) ) ;
#163 = DIRECTION ( 'NONE',  ( 1.000000000000000000, 0.000000000000000000, 0.000000000000000000 ) ) ;
#164 = CIRCLE ( 'NONE', #69, 1.300000000000000266 ) ;
#165 = APPROVAL ( #188, 'NEURÈENÝ' ) ;
#166 = MECHANICAL_CONTEXT ( 'NONE', #302, 'mechanical' ) ;
#167 = EDGE_CURVE ( 'NONE', #108, #197, #253, .T. ) ;
#168 = CARTESIAN_POINT ( 'NONE',  ( 1.100000000000000089, 1.347111479062088503E-16, 102.0000000000000142 ) ) ;
#169 = DIRECTION ( 'NONE',  ( -0.000000000000000000, -0.000000000000000000, -1.000000000000000000 ) ) ;
#170 = SECURITY_CLASSIFICATION_LEVEL ( 'unclassified' ) ;
#171 = EDGE_LOOP ( 'NONE', ( #77, #242, #127, #219 ) ) ;
#172 = APPROVAL ( #238, 'NEURÈENÝ' ) ;
#173 = ORIENTED_EDGE ( 'NONE', *, *, #210, .T. ) ;
#174 = CARTESIAN_POINT ( 'NONE',  ( 2.000000000000000000, 2.449293598294706414E-16, 2.000000000000000000 ) ) ;
#175 = CALENDAR_DATE ( 2022, 7, 7 ) ;
#176 = AXIS2_PLACEMENT_3D ( 'NONE', #259, #190, #52 ) ;
#177 = DIRECTION ( 'NONE',  ( -0.000000000000000000, -0.000000000000000000, -1.000000000000000000 ) ) ;
#178 = APPROVAL ( #289, 'NEURÈENÝ' ) ;
#179 = DIRECTION ( 'NONE',  ( -1.000000000000000000, 0.000000000000000000, 0.000000000000000000 ) ) ;
#180 = DIRECTION ( 'NONE',  ( 0.000000000000000000, 0.000000000000000000, 1.000000000000000000 ) ) ;
#181 = ADVANCED_FACE ( 'NONE', ( #114 ), #285, .F. ) ;
#182 = CARTESIAN_POINT ( 'NONE',  ( 1.300000000000000266, 0.000000000000000000, 1.999999999999996669 ) ) ;
#183 = LINE ( 'NONE', #206, #153 ) ;
#184 = CARTESIAN_POINT ( 'NONE',  ( 0.000000000000000000, 0.000000000000000000, 0.000000000000000000 ) ) ;
#185 = VECTOR ( 'NONE', #274, 1000.000000000000000 ) ;
#186 = CARTESIAN_POINT ( 'NONE',  ( 0.000000000000000000, 0.000000000000000000, 2.199999999999993516 ) ) ;
#187 = DIRECTION ( 'NONE',  ( 0.000000000000000000, 0.000000000000000000, 1.000000000000000000 ) ) ;
#188 = APPROVAL_STATUS ( 'not_yet_approved' ) ;
#189 = AXIS2_PLACEMENT_3D ( 'NONE', #159, #234, #86 ) ;
#190 = DIRECTION ( 'NONE',  ( -0.000000000000000000, -0.000000000000000000, -1.000000000000000000 ) ) ;
#191 = ORIENTED_EDGE ( 'NONE', *, *, #78, .T. ) ;
#192 = UNCERTAINTY_MEASURE_WITH_UNIT (LENGTH_MEASURE( 1.000000000000000082E-05 ), #46, 'distance_accuracy_value', 'NONE');
#193 = PERSON_AND_ORGANIZATION ( #117, #74 ) ;
#194 = ORIENTED_EDGE ( 'NONE', *, *, #22, .F. ) ;
#195 = AXIS2_PLACEMENT_3D ( 'NONE', #62, #228, #15 ) ;
#196 = ORIENTED_EDGE ( 'NONE', *, *, #257, .F. ) ;
#197 = VERTEX_POINT ( 'NONE', #182 ) ;
#198 = MANIFOLD_SOLID_BREP ( 'Zaoblit1', #200 ) ;
#199 = VERTEX_POINT ( 'NONE', #260 ) ;
#200 = CLOSED_SHELL ( 'NONE', ( #288, #157, #156, #246, #50, #145, #34, #35, #181 ) ) ;
#201 = CYLINDRICAL_SURFACE ( 'NONE', #154, 1.100000000000000089 ) ;
#202 = ADVANCED_BREP_SHAPE_REPRESENTATION ( '72bc', ( #198, #55 ), #208 ) ;
#203 = CARTESIAN_POINT ( 'NONE',  ( 0.000000000000000000, 0.000000000000000000, 102.0000000000000142 ) ) ;
#204 = EDGE_CURVE ( 'NONE', #197, #108, #164, .T. ) ;
#205 = FACE_OUTER_BOUND ( 'NONE', #82, .T. ) ;
#206 = CARTESIAN_POINT ( 'NONE',  ( -1.100000000000000089, 0.000000000000000000, 102.0000000000000142 ) ) ;
#207 = AXIS2_PLACEMENT_3D ( 'NONE', #306, #158, #135 ) ;
#208 =( GEOMETRIC_REPRESENTATION_CONTEXT ( 3 ) GLOBAL_UNCERTAINTY_ASSIGNED_CONTEXT ( ( #192 ) ) GLOBAL_UNIT_ASSIGNED_CONTEXT ( ( #46, #95, #70 ) ) REPRESENTATION_CONTEXT ( 'NONE', 'WORKASPACE' ) );
#209 = LINE ( 'NONE', #88, #107 ) ;
#210 = EDGE_CURVE ( 'NONE', #199, #130, #241, .T. ) ;
#211 = DIRECTION ( 'NONE',  ( 1.000000000000000000, 0.000000000000000000, 0.000000000000000000 ) ) ;
#212 = CARTESIAN_POINT ( 'NONE',  ( -1.100000000000000089, 0.000000000000000000, 2.199999999999993516 ) ) ;
#213 = EDGE_CURVE ( 'NONE', #298, #197, #96, .T. ) ;
#214 = PERSON_AND_ORGANIZATION ( #117, #74 ) ;
#215 = DIRECTION ( 'NONE',  ( 0.000000000000000000, -1.000000000000000000, 0.000000000000000000 ) ) ;
#216 = PERSON_AND_ORGANIZATION ( #117, #74 ) ;
#217 = COORDINATED_UNIVERSAL_TIME_OFFSET ( 1, 0, .AHEAD. ) ;
#218 = VERTEX_POINT ( 'NONE', #168 ) ;
#219 = ORIENTED_EDGE ( 'NONE', *, *, #78, .F. ) ;
#220 = APPROVAL_ROLE ( '' ) ;
#221 = ORIENTED_EDGE ( 'NONE', *, *, #19, .F. ) ;
#222 = AXIS2_PLACEMENT_3D ( 'NONE', #124, #215, #2 ) ;
#223 = PRODUCT_DEFINITION_SHAPE ( 'NONE', 'NONE',  #29 ) ;
#224 = ORIENTED_EDGE ( 'NONE', *, *, #239, .T. ) ;
#225 = ORIENTED_EDGE ( 'NONE', *, *, #287, .F. ) ;
#226 = AXIS2_PLACEMENT_3D ( 'NONE', #39, #92, #137 ) ;
#227 = FACE_OUTER_BOUND ( 'NONE', #171, .T. ) ;
#228 = DIRECTION ( 'NONE',  ( 0.000000000000000000, 0.000000000000000000, 1.000000000000000000 ) ) ;
#229 = CC_DESIGN_DATE_AND_TIME_ASSIGNMENT ( #125, #9, ( #29 ) ) ;
#230 = DIRECTION ( 'NONE',  ( -0.000000000000000000, -0.000000000000000000, -1.000000000000000000 ) ) ;
#231 = PRODUCT_RELATED_PRODUCT_CATEGORY ( 'detail', '', ( #110 ) ) ;
#232 = FACE_BOUND ( 'NONE', #61, .T. ) ;
#233 = TOROIDAL_SURFACE ( 'NONE', #273, 1.300000000000000266, 0.2000000000000000111 ) ;
#234 = DIRECTION ( 'NONE',  ( 0.000000000000000000, 0.000000000000000000, 1.000000000000000000 ) ) ;
#235 = APPLICATION_PROTOCOL_DEFINITION ( 'international standard', 'config_control_design', 1994, #302 ) ;
#236 = DIRECTION ( 'NONE',  ( 1.000000000000000000, 0.000000000000000000, 0.000000000000000000 ) ) ;
#237 = DIRECTION ( 'NONE',  ( 1.224646799147353207E-16, 1.000000000000000000, -0.000000000000000000 ) ) ;
#238 = APPROVAL_STATUS ( 'not_yet_approved' ) ;
#239 = EDGE_CURVE ( 'NONE', #218, #295, #142, .T. ) ;
#240 = PERSON_AND_ORGANIZATION_ROLE ( 'creator' ) ;
#241 = CIRCLE ( 'NONE', #51, 2.000000000000000000 ) ;
#242 = ORIENTED_EDGE ( 'NONE', *, *, #40, .T. ) ;
#243 = LOCAL_TIME ( 14, 58, 0.000000000000000000, #103 ) ;
#244 = COORDINATED_UNIVERSAL_TIME_OFFSET ( 1, 0, .AHEAD. ) ;
#245 = ORIENTED_EDGE ( 'NONE', *, *, #12, .F. ) ;
#246 = ADVANCED_FACE ( 'NONE', ( #99 ), #4, .T. ) ;
#247 = DATE_TIME_ROLE ( 'classification_date' ) ;
#248 = AXIS2_PLACEMENT_3D ( 'NONE', #63, #161, #280 ) ;
#249 = LINE ( 'NONE', #133, #185 ) ;
#250 = APPROVAL_PERSON_ORGANIZATION ( #193, #172, #11 ) ;
#251 = CARTESIAN_POINT ( 'NONE',  ( -1.300000000000000266, 1.592040838891559342E-16, 1.999999999999996669 ) ) ;
#252 = PLANE ( 'NONE',  #189 ) ;
#253 = CIRCLE ( 'NONE', #121, 1.300000000000000266 ) ;
#254 = CIRCLE ( 'NONE', #44, 2.000000000000000000 ) ;
#255 = CARTESIAN_POINT ( 'NONE',  ( 0.000000000000000000, 0.000000000000000000, 2.000000000000000000 ) ) ;
#256 = DIRECTION ( 'NONE',  ( 1.000000000000000000, 0.000000000000000000, 0.000000000000000000 ) ) ;
#257 = EDGE_CURVE ( 'NONE', #267, #108, #132, .T. ) ;
#258 = CARTESIAN_POINT ( 'NONE',  ( 0.000000000000000000, 0.000000000000000000, 0.000000000000000000 ) ) ;
#259 = CARTESIAN_POINT ( 'NONE',  ( 0.000000000000000000, 0.000000000000000000, 2.000000000000000000 ) ) ;
#260 = CARTESIAN_POINT ( 'NONE',  ( -2.000000000000000000, 0.000000000000000000, 2.000000000000000000 ) ) ;
#261 = CC_DESIGN_SECURITY_CLASSIFICATION ( #87, ( #300 ) ) ;
#262 = DIRECTION ( 'NONE',  ( 0.000000000000000000, 0.000000000000000000, 1.000000000000000000 ) ) ;
#263 = PERSON_AND_ORGANIZATION ( #117, #74 ) ;
#264 = ORIENTED_EDGE ( 'NONE', *, *, #71, .F. ) ;
#265 = CC_DESIGN_DATE_AND_TIME_ASSIGNMENT ( #148, #247, ( #87 ) ) ;
#266 = DATE_AND_TIME ( #5, #136 ) ;
#267 = VERTEX_POINT ( 'NONE', #212 ) ;
#268 = EDGE_LOOP ( 'NONE', ( #290, #224 ) ) ;
#269 = APPROVAL_DATE_TIME ( #294, #165 ) ;
#270 = DIRECTION ( 'NONE',  ( -0.000000000000000000, -0.000000000000000000, -1.000000000000000000 ) ) ;
#271 = ORIENTED_EDGE ( 'NONE', *, *, #12, .T. ) ;
#272 = AXIS2_PLACEMENT_3D ( 'NONE', #279, #65, #236 ) ;
#273 = AXIS2_PLACEMENT_3D ( 'NONE', #186, #187, #163 ) ;
#274 = DIRECTION ( 'NONE',  ( -0.000000000000000000, -0.000000000000000000, -1.000000000000000000 ) ) ;
#275 = CC_DESIGN_PERSON_AND_ORGANIZATION_ASSIGNMENT ( #214, #48, ( #110 ) ) ;
#276 = CARTESIAN_POINT ( 'NONE',  ( 0.000000000000000000, 0.000000000000000000, 2.000000000000000000 ) ) ;
#277 = CARTESIAN_POINT ( 'NONE',  ( -2.000000000000000000, 0.000000000000000000, 0.000000000000000000 ) ) ;
#278 = APPROVAL_PERSON_ORGANIZATION ( #216, #178, #220 ) ;
#279 = CARTESIAN_POINT ( 'NONE',  ( 0.000000000000000000, 0.000000000000000000, 2.199999999999993516 ) ) ;
#280 = DIRECTION ( 'NONE',  ( 1.000000000000000000, 0.000000000000000000, 0.000000000000000000 ) ) ;
#281 = DIRECTION ( 'NONE',  ( 0.000000000000000000, 0.000000000000000000, 1.000000000000000000 ) ) ;
#282 = APPROVAL_ROLE ( '' ) ;
#283 = CIRCLE ( 'NONE', #293, 2.000000000000000000 ) ;
#284 = CARTESIAN_POINT ( 'NONE',  ( 0.000000000000000000, 0.000000000000000000, 0.000000000000000000 ) ) ;
#285 = TOROIDAL_SURFACE ( 'NONE', #272, 1.300000000000000266, 0.2000000000000000111 ) ;
#286 = LOCAL_TIME ( 14, 58, 0.000000000000000000, #129 ) ;
#287 = EDGE_CURVE ( 'NONE', #149, #13, #254, .T. ) ;
#288 = ADVANCED_FACE ( 'NONE', ( #97 ), #233, .F. ) ;
#289 = APPROVAL_STATUS ( 'not_yet_approved' ) ;
#290 = ORIENTED_EDGE ( 'NONE', *, *, #22, .T. ) ;
#291 = PERSON_AND_ORGANIZATION ( #117, #74 ) ;
#292 = ORIENTED_EDGE ( 'NONE', *, *, #210, .F. ) ;
#293 = AXIS2_PLACEMENT_3D ( 'NONE', #41, #113, #256 ) ;
#294 = DATE_AND_TIME ( #105, #6 ) ;
#295 = VERTEX_POINT ( 'NONE', #75 ) ;
#296 = CC_DESIGN_APPROVAL ( #172, ( #300 ) ) ;
#297 = ORIENTED_EDGE ( 'NONE', *, *, #167, .T. ) ;
#298 = VERTEX_POINT ( 'NONE', #143 ) ;
#299 = DIRECTION ( 'NONE',  ( -0.000000000000000000, -0.000000000000000000, -1.000000000000000000 ) ) ;
#300 = PRODUCT_DEFINITION_FORMATION_WITH_SPECIFIED_SOURCE ( 'LIBOVOLNÝ', '', #110, .NOT_KNOWN. ) ;
#301 = PLANE ( 'NONE',  #85 ) ;
#302 = APPLICATION_CONTEXT ( 'configuration controlled 3d designs of mechanical parts and assemblies' ) ;
#303 = FACE_OUTER_BOUND ( 'NONE', #268, .T. ) ;
#304 = AXIS2_PLACEMENT_3D ( 'NONE', #43, #177, #139 ) ;
#305 = FACE_OUTER_BOUND ( 'NONE', #56, .T. ) ;
#306 = CARTESIAN_POINT ( 'NONE',  ( 0.000000000000000000, 0.000000000000000000, 0.000000000000000000 ) ) ;
#307 = DIRECTION ( 'NONE',  ( 1.000000000000000000, 0.000000000000000000, 0.000000000000000000 ) ) ;
ENDSEC;
END-ISO-10303-21;
